  0
SECTION
  2
HEADER
  9
$ACADVER
  1
AC1014
  9
$ACADMAINTVER
 70
     9
  9
$DWGCODEPAGE
  3
ANSI_1252
  9
$INSBASE
 10
0.0
 20
0.0
 30
0.0
  9
$EXTMIN
 10
-75.0802
 20
47.3827
 30
0.0
  9
$EXTMAX
 10
36.9816
 20
127.4587
 30
0.0
  9
$LIMMIN
 10
0.0
 20
0.0
  9
$LIMMAX
 10
12.0
 20
9.0
  9
$ORTHOMODE
 70
     0
  9
$REGENMODE
 70
     1
  9
$FILLMODE
 70
     1
  9
$QTEXTMODE
 70
     0
  9
$MIRRTEXT
 70
     1
  9
$DRAGMODE
 70
     2
  9
$LTSCALE
 40
1.0
  9
$OSMODE
 70
    37
  9
$ATTMODE
 70
     1
  9
$TEXTSIZE
 40
0.2
  9
$TRACEWID
 40
0.05
  9
$TEXTSTYLE
  7
STANDARD
  9
$CLAYER
  8
0
  9
$CELTYPE
  6
BYLAYER
  9
$CECOLOR
 62
   256
  9
$CELTSCALE
 40
1.0
  9
$DELOBJ
 70
     1
  9
$DISPSILH
 70
     0
  9
$DIMSCALE
 40
1.0
  9
$DIMASZ
 40
0.18
  9
$DIMEXO
 40
0.0625
  9
$DIMDLI
 40
0.38
  9
$DIMRND
 40
0.0
  9
$DIMDLE
 40
0.0
  9
$DIMEXE
 40
0.18
  9
$DIMTP
 40
0.0
  9
$DIMTM
 40
0.0
  9
$DIMTXT
 40
0.18
  9
$DIMCEN
 40
0.09
  9
$DIMTSZ
 40
0.0
  9
$DIMTOL
 70
     0
  9
$DIMLIM
 70
     0
  9
$DIMTIH
 70
     1
  9
$DIMTOH
 70
     1
  9
$DIMSE1
 70
     0
  9
$DIMSE2
 70
     0
  9
$DIMTAD
 70
     0
  9
$DIMZIN
 70
     0
  9
$DIMBLK
  1

  9
$DIMASO
 70
     1
  9
$DIMSHO
 70
     1
  9
$DIMPOST
  1

  9
$DIMAPOST
  1

  9
$DIMALT
 70
     0
  9
$DIMALTD
 70
     2
  9
$DIMALTF
 40
25.4
  9
$DIMLFAC
 40
1.0
  9
$DIMTOFL
 70
     0
  9
$DIMTVP
 40
0.0
  9
$DIMTIX
 70
     0
  9
$DIMSOXD
 70
     0
  9
$DIMSAH
 70
     0
  9
$DIMBLK1
  1

  9
$DIMBLK2
  1

  9
$DIMSTYLE
  2
STANDARD
  9
$DIMCLRD
 70
     0
  9
$DIMCLRE
 70
     0
  9
$DIMCLRT
 70
     0
  9
$DIMTFAC
 40
1.0
  9
$DIMGAP
 40
0.09
  9
$DIMJUST
 70
     0
  9
$DIMSD1
 70
     0
  9
$DIMSD2
 70
     0
  9
$DIMTOLJ
 70
     1
  9
$DIMTZIN
 70
     0
  9
$DIMALTZ
 70
     0
  9
$DIMALTTZ
 70
     0
  9
$DIMFIT
 70
     3
  9
$DIMUPT
 70
     0
  9
$DIMUNIT
 70
     2
  9
$DIMDEC
 70
     4
  9
$DIMTDEC
 70
     4
  9
$DIMALTU
 70
     2
  9
$DIMALTTD
 70
     2
  9
$DIMTXSTY
  7
STANDARD
  9
$DIMAUNIT
 70
     0
  9
$LUNITS
 70
     2
  9
$LUPREC
 70
     4
  9
$SKETCHINC
 40
0.1
  9
$FILLETRAD
 40
0.5
  9
$AUNITS
 70
     0
  9
$AUPREC
 70
     0
  9
$MENU
  1
.
  9
$ELEVATION
 40
0.0
  9
$PELEVATION
 40
0.0
  9
$THICKNESS
 40
0.0
  9
$LIMCHECK
 70
     0
  9
$CHAMFERA
 40
0.0
  9
$CHAMFERB
 40
0.0
  9
$CHAMFERC
 40
0.0
  9
$CHAMFERD
 40
0.0
  9
$SKPOLY
 70
     0
  9
$TDCREATE
 40
2459994.993491516
  9
$TDUPDATE
 40
2459994.993492778
  9
$TDINDWG
 40
0.0000000116
  9
$TDUSRTIMER
 40
0.0000000116
  9
$USRTIMER
 70
     1
  9
$ANGBASE
 50
0.0
  9
$ANGDIR
 70
     0
  9
$PDMODE
 70
     0
  9
$PDSIZE
 40
0.0
  9
$PLINEWID
 40
0.0
  9
$COORDS
 70
     1
  9
$SPLFRAME
 70
     0
  9
$SPLINETYPE
 70
     6
  9
$SPLINESEGS
 70
     8
  9
$ATTDIA
 70
     0
  9
$ATTREQ
 70
     1
  9
$HANDLING
 70
     1
  9
$HANDSEED
  5
AE
  9
$SURFTAB1
 70
     6
  9
$SURFTAB2
 70
     6
  9
$SURFTYPE
 70
     6
  9
$SURFU
 70
     6
  9
$SURFV
 70
     6
  9
$UCSNAME
  2

  9
$UCSORG
 10
0.0
 20
0.0
 30
0.0
  9
$UCSXDIR
 10
1.0
 20
0.0
 30
0.0
  9
$UCSYDIR
 10
0.0
 20
1.0
 30
0.0
  9
$PUCSNAME
  2

  9
$PUCSORG
 10
0.0
 20
0.0
 30
0.0
  9
$PUCSXDIR
 10
1.0
 20
0.0
 30
0.0
  9
$PUCSYDIR
 10
0.0
 20
1.0
 30
0.0
  9
$USERI1
 70
     0
  9
$USERI2
 70
     0
  9
$USERI3
 70
     0
  9
$USERI4
 70
     0
  9
$USERI5
 70
     0
  9
$USERR1
 40
0.0
  9
$USERR2
 40
0.0
  9
$USERR3
 40
0.0
  9
$USERR4
 40
0.0
  9
$USERR5
 40
0.0
  9
$WORLDVIEW
 70
     1
  9
$SHADEDGE
 70
     3
  9
$SHADEDIF
 70
    70
  9
$TILEMODE
 70
     1
  9
$MAXACTVP
 70
    64
  9
$PINSBASE
 10
0.0
 20
0.0
 30
0.0
  9
$PLIMCHECK
 70
     0
  9
$PEXTMIN
 10
1.000000000000000E+20
 20
1.000000000000000E+20
 30
1.000000000000000E+20
  9
$PEXTMAX
 10
-1.000000000000000E+20
 20
-1.000000000000000E+20
 30
-1.000000000000000E+20
  9
$PLIMMIN
 10
0.0
 20
0.0
  9
$PLIMMAX
 10
12.0
 20
9.0
  9
$UNITMODE
 70
     0
  9
$VISRETAIN
 70
     1
  9
$PLINEGEN
 70
     0
  9
$PSLTSCALE
 70
     1
  9
$TREEDEPTH
 70
  3020
  9
$PICKSTYLE
 70
     1
  9
$CMLSTYLE
  2
STANDARD
  9
$CMLJUST
 70
     0
  9
$CMLSCALE
 40
1.0
  9
$PROXYGRAPHICS
 70
     1
  9
$MEASUREMENT
 70
     0
  0
ENDSEC
  0
SECTION
  2
CLASSES
  0
CLASS
  1
ACDBDICTIONARYWDFLT
  2
AcDbDictionaryWithDefault
  3
ObjectDBX Classes
 90
        0
280
     0
281
     0
  0
CLASS
  1
VISUALSTYLE
  2
AcDbVisualStyle
  3
ObjectDBX Classes
 90
     4095
280
     0
281
     0
  0
CLASS
  1
MATERIAL
  2
AcDbMaterial
  3
ObjectDBX Classes
 90
     1153
280
     0
281
     0
  0
CLASS
  1
SCALE
  2
AcDbScale
  3
ObjectDBX Classes
 90
     1153
280
     0
281
     0
  0
CLASS
  1
TABLESTYLE
  2
AcDbTableStyle
  3
ObjectDBX Classes
 90
     4095
280
     0
281
     0
  0
CLASS
  1
MLEADERSTYLE
  2
AcDbMLeaderStyle
  3
ACDB_MLEADERSTYLE_CLASS
 90
     4095
280
     0
281
     0
  0
CLASS
  1
SUN
  2
AcDbSun
  3
SCENEOE
 90
     1153
280
     0
281
     0
  0
CLASS
  1
DICTIONARYVAR
  2
AcDbDictionaryVar
  3
ObjectDBX Classes
 90
        0
280
     0
281
     0
  0
CLASS
  1
XRECORD
  2
AcDbXrecord
  3
ObjectDBX Classes
 90
        0
280
     0
281
     0
  0
CLASS
  1
LWPOLYLINE
  2
AcDbPolyline
  3
ObjectDBX Classes
 90
        0
280
     0
281
     1
  0
CLASS
  1
HATCH
  2
AcDbHatch
  3
ObjectDBX Classes
 90
        0
280
     0
281
     1
  0
CLASS
  1
ACDBPLACEHOLDER
  2
AcDbPlaceHolder
  3
ObjectDBX Classes
 90
        0
280
     0
281
     0
  0
CLASS
  1
LAYOUT
  2
AcDbLayout
  3
ObjectDBX Classes
 90
        0
280
     0
281
     0
  0
ENDSEC
  0
SECTION
  2
TABLES
  0
TABLE
  2
VPORT
  5
8
102
{ACAD_XDICTIONARY
360
A3
102
}
330
0
100
AcDbSymbolTable
 70
     1
  0
VPORT
  5
29
330
8
100
AcDbSymbolTableRecord
100
AcDbViewportTableRecord
  2
*ACTIVE
 70
     0
 10
0.0
 20
0.0
 11
1.0
 21
1.0
 12
10.42990654205607
 22
4.5
 13
0.0
 23
0.0
 14
0.5
 24
0.5
 15
0.5
 25
0.5
 16
0.0
 26
0.0
 36
1.0
 17
0.0
 27
0.0
 37
0.0
 40
9.0
 41
1.972972972850329
 42
50.0
 43
0.0
 44
0.0
 50
0.0
 51
0.0
 71
     0
 72
   100
 73
     1
 74
     3
 75
     0
 76
     0
 77
     0
 78
     0
  0
ENDTAB
  0
TABLE
  2
LTYPE
  5
5
330
0
100
AcDbSymbolTable
 70
     1
  0
LTYPE
  5
14
330
5
100
AcDbSymbolTableRecord
100
AcDbLinetypeTableRecord
  2
BYBLOCK
 70
     0
  3

 72
    65
 73
     0
 40
0.0
  0
LTYPE
  5
15
330
5
100
AcDbSymbolTableRecord
100
AcDbLinetypeTableRecord
  2
BYLAYER
 70
     0
  3

 72
    65
 73
     0
 40
0.0
  0
LTYPE
  5
16
330
5
100
AcDbSymbolTableRecord
100
AcDbLinetypeTableRecord
  2
CONTINUOUS
 70
     0
  3
Solid line
 72
    65
 73
     0
 40
0.0
  0
ENDTAB
  0
TABLE
  2
LAYER
  5
2
330
0
100
AcDbSymbolTable
 70
     1
  0
LAYER
  5
10
330
2
100
AcDbSymbolTableRecord
100
AcDbLayerTableRecord
  2
0
 70
     0
 62
     7
  6
CONTINUOUS
  0
ENDTAB
  0
TABLE
  2
STYLE
  5
3
330
0
100
AcDbSymbolTable
 70
     1
  0
STYLE
  5
11
330
3
100
AcDbSymbolTableRecord
100
AcDbTextStyleTableRecord
  2
STANDARD
 70
     0
 40
0.0
 41
1.0
 50
0.0
 71
     0
 42
0.2
  3
txt
  4

  0
ENDTAB
  0
TABLE
  2
VIEW
  5
6
330
0
100
AcDbSymbolTable
 70
     0
  0
ENDTAB
  0
TABLE
  2
UCS
  5
7
330
0
100
AcDbSymbolTable
 70
     0
  0
ENDTAB
  0
TABLE
  2
APPID
  5
9
330
0
100
AcDbSymbolTable
 70
     3
  0
APPID
  5
12
330
9
100
AcDbSymbolTableRecord
100
AcDbRegAppTableRecord
  2
ACAD
 70
     0
  0
APPID
  5
6E
330
9
100
AcDbSymbolTableRecord
100
AcDbRegAppTableRecord
  2
ODA
 70
     0
  0
APPID
  5
AD
330
9
100
AcDbSymbolTableRecord
100
AcDbRegAppTableRecord
  2
ACAD_MLEADERVER
 70
     0
  0
ENDTAB
  0
TABLE
  2
DIMSTYLE
  5
A
330
0
100
AcDbSymbolTable
 70
     1
  0
DIMSTYLE
105
27
330
A
100
AcDbSymbolTableRecord
100
AcDbDimStyleTableRecord
  2
STANDARD
 70
     0
  3

  4

  5

  6

  7

 40
1.0
 41
0.18
 42
0.0625
 43
0.38
 44
0.18
 45
0.0
 46
0.0
 47
0.0
 48
0.0
140
0.18
141
0.09
142
0.0
143
25.4
144
1.0
145
0.0
146
1.0
147
0.09
 71
     0
 72
     0
 73
     1
 74
     1
 75
     0
 76
     0
 77
     0
 78
     0
170
     0
171
     2
172
     0
173
     0
174
     0
175
     0
176
     0
177
     0
178
     0
270
     2
271
     4
272
     4
273
     2
274
     2
340
11
275
     0
280
     0
281
     0
282
     0
283
     1
284
     0
285
     0
286
     0
287
     3
288
     0
  0
ENDTAB
  0
TABLE
  2
BLOCK_RECORD
  5
1
330
0
100
AcDbSymbolTable
 70
     0
  0
BLOCK_RECORD
  5
1F
330
1
100
AcDbSymbolTableRecord
100
AcDbBlockTableRecord
  2
*MODEL_SPACE
  0
BLOCK_RECORD
  5
1B
330
1
100
AcDbSymbolTableRecord
100
AcDbBlockTableRecord
  2
*PAPER_SPACE
  0
ENDTAB
  0
ENDSEC
  0
SECTION
  2
BLOCKS
  0
BLOCK
  5
20
330
1F
100
AcDbEntity
  8
0
100
AcDbBlockBegin
  2
*MODEL_SPACE
 70
     0
 10
0.0
 20
0.0
 30
0.0
  3
*MODEL_SPACE
  1

  0
ENDBLK
  5
21
330
1F
100
AcDbEntity
  8
0
100
AcDbBlockEnd
  0
BLOCK
  5
1C
330
1B
100
AcDbEntity
 67
     1
  8
0
100
AcDbBlockBegin
  2
*PAPER_SPACE
 70
     0
 10
0.0
 20
0.0
 30
0.0
  3
*PAPER_SPACE
  1

  0
ENDBLK
  5
1D
330
1B
100
AcDbEntity
 67
     1
  8
0
100
AcDbBlockEnd
  0
ENDSEC
  0
SECTION
  2
ENTITIES
  0
SPLINE
  5
6F
330
1F
100
AcDbEntity
  8
0
100
AcDbSpline
210
0.0
220
0.0
230
1.0
 70
    11
 71
     3
 72
    20
 73
    16
 74
     0
 42
0.000000001
 43
0.0000000001
 40
0.0
 40
0.0
 40
0.0
 40
0.0
 40
0.2
 40
0.2
 40
0.2
 40
0.2
 40
0.4
 40
0.4
 40
0.4
 40
0.4
 40
0.6
 40
0.6
 40
0.6
 40
0.6
 40
1.0
 40
1.0
 40
1.0
 40
1.0
 10
-40.5399
 20
117.4206
 30
0.0
 10
-40.5399
 20
119.9059
 30
0.0
 10
-42.5546
 20
121.9206
 30
0.0
 10
-45.0399
 20
121.9206
 30
0.0
 10
-45.0399
 20
121.9206
 30
0.0
 10
-47.5252
 20
121.9206
 30
0.0
 10
-49.5399
 20
119.9059
 30
0.0
 10
-49.5399
 20
117.4206
 30
0.0
 10
-49.5399
 20
117.4206
 30
0.0
 10
-49.5399
 20
114.9354
 30
0.0
 10
-47.5252
 20
112.9206
 30
0.0
 10
-45.0399
 20
112.9206
 30
0.0
 10
-45.0399
 20
112.9206
 30
0.0
 10
-42.5546
 20
112.9206
 30
0.0
 10
-40.5399
 20
114.9353
 30
0.0
 10
-40.5399
 20
117.4206
 30
0.0
  0
SPLINE
  5
70
330
1F
100
AcDbEntity
  8
0
100
AcDbSpline
210
0.0
220
0.0
230
1.0
 70
    11
 71
     3
 72
    20
 73
    16
 74
     0
 42
0.000000001
 43
0.0000000001
 40
0.0
 40
0.0
 40
0.0
 40
0.0
 40
0.2
 40
0.2
 40
0.2
 40
0.2
 40
0.4
 40
0.4
 40
0.4
 40
0.4
 40
0.6
 40
0.6
 40
0.6
 40
0.6
 40
1.0
 40
1.0
 40
1.0
 40
1.0
 10
-60.5399
 20
97.4206
 30
0.0
 10
-60.5399
 20
99.9059
 30
0.0
 10
-62.5546
 20
101.9206
 30
0.0
 10
-65.0399
 20
101.9206
 30
0.0
 10
-65.0399
 20
101.9206
 30
0.0
 10
-67.5252
 20
101.9206
 30
0.0
 10
-69.5399
 20
99.9059
 30
0.0
 10
-69.5399
 20
97.4206
 30
0.0
 10
-69.5399
 20
97.4206
 30
0.0
 10
-69.5399
 20
94.9354
 30
0.0
 10
-67.5252
 20
92.9206
 30
0.0
 10
-65.0399
 20
92.9206
 30
0.0
 10
-65.0399
 20
92.9206
 30
0.0
 10
-62.5546
 20
92.9206
 30
0.0
 10
-60.5399
 20
94.9353
 30
0.0
 10
-60.5399
 20
97.4206
 30
0.0
  0
SPLINE
  5
71
330
1F
100
AcDbEntity
  8
0
100
AcDbSpline
210
0.0
220
0.0
230
1.0
 70
    11
 71
     3
 72
    20
 73
    16
 74
     0
 42
0.000000001
 43
0.0000000001
 40
0.0
 40
0.0
 40
0.0
 40
0.0
 40
0.2
 40
0.2
 40
0.2
 40
0.2
 40
0.4
 40
0.4
 40
0.4
 40
0.4
 40
0.6
 40
0.6
 40
0.6
 40
0.6
 40
1.0
 40
1.0
 40
1.0
 40
1.0
 10
-40.5399
 20
97.4206
 30
0.0
 10
-40.5399
 20
99.9059
 30
0.0
 10
-42.5546
 20
101.9206
 30
0.0
 10
-45.0399
 20
101.9206
 30
0.0
 10
-45.0399
 20
101.9206
 30
0.0
 10
-47.5252
 20
101.9206
 30
0.0
 10
-49.5399
 20
99.9059
 30
0.0
 10
-49.5399
 20
97.4206
 30
0.0
 10
-49.5399
 20
97.4206
 30
0.0
 10
-49.5399
 20
94.9354
 30
0.0
 10
-47.5252
 20
92.9206
 30
0.0
 10
-45.0399
 20
92.9206
 30
0.0
 10
-45.0399
 20
92.9206
 30
0.0
 10
-42.5546
 20
92.9206
 30
0.0
 10
-40.5399
 20
94.9353
 30
0.0
 10
-40.5399
 20
97.4206
 30
0.0
  0
SPLINE
  5
72
330
1F
100
AcDbEntity
  8
0
100
AcDbSpline
210
0.0
220
0.0
230
1.0
 70
    11
 71
     3
 72
    20
 73
    16
 74
     0
 42
0.000000001
 43
0.0000000001
 40
0.0
 40
0.0
 40
0.0
 40
0.0
 40
0.2
 40
0.2
 40
0.2
 40
0.2
 40
0.4
 40
0.4
 40
0.4
 40
0.4
 40
0.6
 40
0.6
 40
0.6
 40
0.6
 40
1.0
 40
1.0
 40
1.0
 40
1.0
 10
-20.5399
 20
97.4207
 30
0.0
 10
-20.5399
 20
99.906
 30
0.0
 10
-22.5546
 20
101.9207
 30
0.0
 10
-25.0399
 20
101.9207
 30
0.0
 10
-25.0399
 20
101.9207
 30
0.0
 10
-27.5252
 20
101.9207
 30
0.0
 10
-29.5399
 20
99.906
 30
0.0
 10
-29.5399
 20
97.4207
 30
0.0
 10
-29.5399
 20
97.4207
 30
0.0
 10
-29.5399
 20
94.9354
 30
0.0
 10
-27.5252
 20
92.9207
 30
0.0
 10
-25.0399
 20
92.9207
 30
0.0
 10
-25.0399
 20
92.9207
 30
0.0
 10
-22.5546
 20
92.9207
 30
0.0
 10
-20.5399
 20
94.9354
 30
0.0
 10
-20.5399
 20
97.4207
 30
0.0
  0
SPLINE
  5
73
330
1F
100
AcDbEntity
  8
0
100
AcDbSpline
210
0.0
220
0.0
230
1.0
 70
    11
 71
     3
 72
    23
 73
    19
 74
     0
 42
0.000000001
 43
0.0000000001
 40
0.0
 40
0.0
 40
0.0
 40
0.0
 40
0.2
 40
0.2
 40
0.2
 40
0.2
 40
0.4
 40
0.4
 40
0.4
 40
0.4
 40
0.6
 40
0.6
 40
0.6
 40
0.6
 40
1.0
 40
1.0
 40
1.0
 40
1.000100000000003
 40
1.000100000000003
 40
1.000100000000003
 40
1.000100000000003
 10
-40.54
 20
77.4208
 30
0.0
 10
-40.54
 20
79.906
 30
0.0
 10
-42.5547
 20
81.9208
 30
0.0
 10
-45.04
 20
81.9208
 30
0.0
 10
-45.04
 20
81.9208
 30
0.0
 10
-47.5252
 20
81.9208
 30
0.0
 10
-49.54
 20
79.9061
 30
0.0
 10
-49.54
 20
77.4208
 30
0.0
 10
-49.54
 20
77.4208
 30
0.0
 10
-49.54
 20
74.9355
 30
0.0
 10
-47.5253
 20
72.9208
 30
0.0
 10
-45.04
 20
72.9208
 30
0.0
 10
-45.04
 20
72.9208
 30
0.0
 10
-42.5547
 20
72.9208
 30
0.0
 10
-40.54
 20
74.9355
 30
0.0
 10
-40.54
 20
77.4207
 30
0.0
 10
-40.54
 20
151.9767000000001
 30
0.0
 10
-40.54
 20
-71.69120000000099
 30
0.0
 10
-40.54
 20
77.4208
 30
0.0
  0
SPLINE
  5
74
330
1F
100
AcDbEntity
  8
0
100
AcDbSpline
210
0.0
220
0.0
230
1.0
 70
    11
 71
     3
 72
    23
 73
    19
 74
     0
 42
0.000000001
 43
0.0000000001
 40
0.0
 40
0.0
 40
0.0
 40
0.0
 40
0.2
 40
0.2
 40
0.2
 40
0.2
 40
0.4
 40
0.4
 40
0.4
 40
0.4
 40
0.6
 40
0.6
 40
0.6
 40
0.6
 40
1.0
 40
1.0
 40
1.0
 40
1.000100000000003
 40
1.000100000000003
 40
1.000100000000003
 40
1.000100000000003
 10
-20.54
 20
77.4208
 30
0.0
 10
-20.54
 20
79.906
 30
0.0
 10
-22.5547
 20
81.9208
 30
0.0
 10
-25.04
 20
81.9208
 30
0.0
 10
-25.04
 20
81.9208
 30
0.0
 10
-27.5252
 20
81.9208
 30
0.0
 10
-29.54
 20
79.9061
 30
0.0
 10
-29.54
 20
77.4208
 30
0.0
 10
-29.54
 20
77.4208
 30
0.0
 10
-29.54
 20
74.9355
 30
0.0
 10
-27.5253
 20
72.9208
 30
0.0
 10
-25.04
 20
72.9208
 30
0.0
 10
-25.04
 20
72.9208
 30
0.0
 10
-22.5547
 20
72.9208
 30
0.0
 10
-20.54
 20
74.9355
 30
0.0
 10
-20.54
 20
77.4207
 30
0.0
 10
-20.54
 20
151.9767000000001
 30
0.0
 10
-20.54
 20
-71.69120000000099
 30
0.0
 10
-20.54
 20
77.4208
 30
0.0
  0
SPLINE
  5
75
330
1F
100
AcDbEntity
  8
0
100
AcDbSpline
210
0.0
220
0.0
230
1.0
 70
    11
 71
     3
 72
    23
 73
    19
 74
     0
 42
0.000000001
 43
0.0000000001
 40
0.0
 40
0.0
 40
0.0
 40
0.0
 40
0.2
 40
0.2
 40
0.2
 40
0.2
 40
0.4
 40
0.4
 40
0.4
 40
0.4
 40
0.6
 40
0.6
 40
0.6
 40
0.6
 40
1.0
 40
1.0
 40
1.0
 40
1.000100000000003
 40
1.000100000000003
 40
1.000100000000003
 40
1.000100000000003
 10
-0.54
 20
77.4208
 30
0.0
 10
-0.54
 20
79.906
 30
0.0
 10
-2.5547
 20
81.9208
 30
0.0
 10
-5.04
 20
81.9208
 30
0.0
 10
-5.04
 20
81.9208
 30
0.0
 10
-7.5252
 20
81.9208
 30
0.0
 10
-9.54
 20
79.9061
 30
0.0
 10
-9.54
 20
77.4208
 30
0.0
 10
-9.54
 20
77.4208
 30
0.0
 10
-9.54
 20
74.9355
 30
0.0
 10
-7.5253
 20
72.9208
 30
0.0
 10
-5.04
 20
72.9208
 30
0.0
 10
-5.04
 20
72.9208
 30
0.0
 10
-2.5547
 20
72.9208
 30
0.0
 10
-0.54
 20
74.9355
 30
0.0
 10
-0.54
 20
77.4207
 30
0.0
 10
-0.54
 20
151.9767000000001
 30
0.0
 10
-0.54
 20
-71.69120000000099
 30
0.0
 10
-0.54
 20
77.4208
 30
0.0
  0
SPLINE
  5
76
330
1F
100
AcDbEntity
  8
0
100
AcDbSpline
210
0.0
220
0.0
230
1.0
 70
    11
 71
     3
 72
    23
 73
    19
 74
     0
 42
0.000000001
 43
0.0000000001
 40
0.0
 40
0.0
 40
0.0
 40
0.0
 40
0.2
 40
0.2
 40
0.2
 40
0.2
 40
0.4
 40
0.4
 40
0.4
 40
0.4
 40
0.6
 40
0.6
 40
0.6
 40
0.6
 40
1.0
 40
1.0
 40
1.0
 40
1.000100000000003
 40
1.000100000000003
 40
1.000100000000003
 40
1.000100000000003
 10
-60.5421
 20
57.4208
 30
0.0
 10
-60.5421
 20
59.906
 30
0.0
 10
-62.5568
 20
61.9208
 30
0.0
 10
-65.042
 20
61.9208
 30
0.0
 10
-65.042
 20
61.9208
 30
0.0
 10
-67.5273
 20
61.9208
 30
0.0
 10
-69.542
 20
59.9061
 30
0.0
 10
-69.5421
 20
57.4208
 30
0.0
 10
-69.5421
 20
57.4208
 30
0.0
 10
-69.5421
 20
54.9355
 30
0.0
 10
-67.5273
 20
52.9208
 30
0.0
 10
-65.0421
 20
52.9208
 30
0.0
 10
-65.0421
 20
52.9208
 30
0.0
 10
-62.5568
 20
52.9208
 30
0.0
 10
-60.5421
 20
54.9355
 30
0.0
 10
-60.5421
 20
57.4207
 30
0.0
 10
-60.5421
 20
131.9767000000001
 30
0.0
 10
-60.5421
 20
-91.69120000000008
 30
0.0
 10
-60.5421
 20
57.4208
 30
0.0
  0
SPLINE
  5
77
330
1F
100
AcDbEntity
  8
0
100
AcDbSpline
210
0.0
220
0.0
230
1.0
 70
    11
 71
     3
 72
    23
 73
    19
 74
     0
 42
0.000000001
 43
0.0000000001
 40
0.0
 40
0.0
 40
0.0
 40
0.0
 40
0.2
 40
0.2
 40
0.2
 40
0.2
 40
0.4
 40
0.4
 40
0.4
 40
0.4
 40
0.6
 40
0.6
 40
0.6
 40
0.6
 40
1.0
 40
1.0
 40
1.0
 40
1.000100000000003
 40
1.000100000000003
 40
1.000100000000003
 40
1.000100000000003
 10
-40.5421
 20
57.4208
 30
0.0
 10
-40.5421
 20
59.906
 30
0.0
 10
-42.5568
 20
61.9208
 30
0.0
 10
-45.042
 20
61.9208
 30
0.0
 10
-45.042
 20
61.9208
 30
0.0
 10
-47.5273
 20
61.9208
 30
0.0
 10
-49.542
 20
59.9061
 30
0.0
 10
-49.5421
 20
57.4208
 30
0.0
 10
-49.5421
 20
57.4208
 30
0.0
 10
-49.5421
 20
54.9355
 30
0.0
 10
-47.5273
 20
52.9208
 30
0.0
 10
-45.0421
 20
52.9208
 30
0.0
 10
-45.0421
 20
52.9208
 30
0.0
 10
-42.5568
 20
52.9208
 30
0.0
 10
-40.5421
 20
54.9355
 30
0.0
 10
-40.5421
 20
57.4207
 30
0.0
 10
-40.5421
 20
131.9767000000001
 30
0.0
 10
-40.5421
 20
-91.69120000000008
 30
0.0
 10
-40.5421
 20
57.4208
 30
0.0
  0
SPLINE
  5
78
330
1F
100
AcDbEntity
  8
0
100
AcDbSpline
210
0.0
220
0.0
230
1.0
 70
    11
 71
     3
 72
    23
 73
    19
 74
     0
 42
0.000000001
 43
0.0000000001
 40
0.0
 40
0.0
 40
0.0
 40
0.0
 40
0.2
 40
0.2
 40
0.2
 40
0.2
 40
0.4
 40
0.4
 40
0.4
 40
0.4
 40
0.6
 40
0.6
 40
0.6
 40
0.6
 40
1.0
 40
1.0
 40
1.0
 40
1.000100000000003
 40
1.000100000000003
 40
1.000100000000003
 40
1.000100000000003
 10
-20.5421
 20
57.4208
 30
0.0
 10
-20.5421
 20
59.906
 30
0.0
 10
-22.5568
 20
61.9208
 30
0.0
 10
-25.042
 20
61.9208
 30
0.0
 10
-25.042
 20
61.9208
 30
0.0
 10
-27.5273
 20
61.9208
 30
0.0
 10
-29.542
 20
59.9061
 30
0.0
 10
-29.5421
 20
57.4208
 30
0.0
 10
-29.5421
 20
57.4208
 30
0.0
 10
-29.5421
 20
54.9355
 30
0.0
 10
-27.5273
 20
52.9208
 30
0.0
 10
-25.0421
 20
52.9208
 30
0.0
 10
-25.0421
 20
52.9208
 30
0.0
 10
-22.5568
 20
52.9208
 30
0.0
 10
-20.5421
 20
54.9355
 30
0.0
 10
-20.5421
 20
57.4207
 30
0.0
 10
-20.5421
 20
131.9767000000001
 30
0.0
 10
-20.5421
 20
-91.69120000000008
 30
0.0
 10
-20.5421
 20
57.4208
 30
0.0
  0
SPLINE
  5
79
330
1F
100
AcDbEntity
  8
0
100
AcDbSpline
210
0.0
220
0.0
230
1.0
 70
    11
 71
     3
 72
   460
 73
   456
 74
     0
 42
0.000000001
 43
0.0000000001
 40
0.0
 40
0.0
 40
0.0
 40
0.0
 40
0.008695652173913
 40
0.008695652173913
 40
0.008695652173913
 40
0.008695652173913
 40
0.0173913043478261
 40
0.0173913043478261
 40
0.0173913043478261
 40
0.0173913043478261
 40
0.0260869565217391
 40
0.0260869565217391
 40
0.0260869565217391
 40
0.0260869565217391
 40
0.0347826086956522
 40
0.0347826086956522
 40
0.0347826086956522
 40
0.0347826086956522
 40
0.0434782608695652
 40
0.0434782608695652
 40
0.0434782608695652
 40
0.0434782608695652
 40
0.0521739130434783
 40
0.0521739130434783
 40
0.0521739130434783
 40
0.0521739130434783
 40
0.0608695652173913
 40
0.0608695652173913
 40
0.0608695652173913
 40
0.0608695652173913
 40
0.0695652173913043
 40
0.0695652173913043
 40
0.0695652173913043
 40
0.0695652173913043
 40
0.0782608695652174
 40
0.0782608695652174
 40
0.0782608695652174
 40
0.0782608695652174
 40
0.0869565217391304
 40
0.0869565217391304
 40
0.0869565217391304
 40
0.0869565217391304
 40
0.0956521739130435
 40
0.0956521739130435
 40
0.0956521739130435
 40
0.0956521739130435
 40
0.1043478260869565
 40
0.1043478260869565
 40
0.1043478260869565
 40
0.1043478260869565
 40
0.1130434782608696
 40
0.1130434782608696
 40
0.1130434782608696
 40
0.1130434782608696
 40
0.1217391304347826
 40
0.1217391304347826
 40
0.1217391304347826
 40
0.1217391304347826
 40
0.1304347826086956
 40
0.1304347826086956
 40
0.1304347826086956
 40
0.1304347826086956
 40
0.1391304347826087
 40
0.1391304347826087
 40
0.1391304347826087
 40
0.1391304347826087
 40
0.1478260869565217
 40
0.1478260869565217
 40
0.1478260869565217
 40
0.1478260869565217
 40
0.1565217391304348
 40
0.1565217391304348
 40
0.1565217391304348
 40
0.1565217391304348
 40
0.1652173913043478
 40
0.1652173913043478
 40
0.1652173913043478
 40
0.1652173913043478
 40
0.1739130434782609
 40
0.1739130434782609
 40
0.1739130434782609
 40
0.1739130434782609
 40
0.1826086956521739
 40
0.1826086956521739
 40
0.1826086956521739
 40
0.1826086956521739
 40
0.191304347826087
 40
0.191304347826087
 40
0.191304347826087
 40
0.191304347826087
 40
0.2
 40
0.2
 40
0.2
 40
0.2
 40
0.208695652173913
 40
0.208695652173913
 40
0.208695652173913
 40
0.208695652173913
 40
0.2173913043478261
 40
0.2173913043478261
 40
0.2173913043478261
 40
0.2173913043478261
 40
0.2260869565217391
 40
0.2260869565217391
 40
0.2260869565217391
 40
0.2260869565217391
 40
0.2347826086956522
 40
0.2347826086956522
 40
0.2347826086956522
 40
0.2347826086956522
 40
0.2434782608695652
 40
0.2434782608695652
 40
0.2434782608695652
 40
0.2434782608695652
 40
0.2521739130434782
 40
0.2521739130434782
 40
0.2521739130434782
 40
0.2521739130434782
 40
0.2608695652173913
 40
0.2608695652173913
 40
0.2608695652173913
 40
0.2608695652173913
 40
0.2695652173913043
 40
0.2695652173913043
 40
0.2695652173913043
 40
0.2695652173913043
 40
0.2782608695652174
 40
0.2782608695652174
 40
0.2782608695652174
 40
0.2782608695652174
 40
0.2869565217391304
 40
0.2869565217391304
 40
0.2869565217391304
 40
0.2869565217391304
 40
0.2956521739130435
 40
0.2956521739130435
 40
0.2956521739130435
 40
0.2956521739130435
 40
0.3043478260869565
 40
0.3043478260869565
 40
0.3043478260869565
 40
0.3043478260869565
 40
0.3130434782608696
 40
0.3130434782608696
 40
0.3130434782608696
 40
0.3130434782608696
 40
0.3217391304347826
 40
0.3217391304347826
 40
0.3217391304347826
 40
0.3217391304347826
 40
0.3304347826086956
 40
0.3304347826086956
 40
0.3304347826086956
 40
0.3304347826086956
 40
0.3391304347826087
 40
0.3391304347826087
 40
0.3391304347826087
 40
0.3391304347826087
 40
0.3478260869565217
 40
0.3478260869565217
 40
0.3478260869565217
 40
0.3478260869565217
 40
0.3565217391304348
 40
0.3565217391304348
 40
0.3565217391304348
 40
0.3565217391304348
 40
0.3652173913043478
 40
0.3652173913043478
 40
0.3652173913043478
 40
0.3652173913043478
 40
0.3739130434782609
 40
0.3739130434782609
 40
0.3739130434782609
 40
0.3739130434782609
 40
0.3826086956521739
 40
0.3826086956521739
 40
0.3826086956521739
 40
0.3826086956521739
 40
0.391304347826087
 40
0.391304347826087
 40
0.391304347826087
 40
0.391304347826087
 40
0.4
 40
0.4
 40
0.4
 40
0.4
 40
0.4086956521739131
 40
0.4086956521739131
 40
0.4086956521739131
 40
0.4086956521739131
 40
0.4173913043478261
 40
0.4173913043478261
 40
0.4173913043478261
 40
0.4173913043478261
 40
0.4260869565217391
 40
0.4260869565217391
 40
0.4260869565217391
 40
0.4260869565217391
 40
0.4347826086956522
 40
0.4347826086956522
 40
0.4347826086956522
 40
0.4347826086956522
 40
0.4434782608695652
 40
0.4434782608695652
 40
0.4434782608695652
 40
0.4434782608695652
 40
0.4521739130434783
 40
0.4521739130434783
 40
0.4521739130434783
 40
0.4521739130434783
 40
0.4608695652173913
 40
0.4608695652173913
 40
0.4608695652173913
 40
0.4608695652173913
 40
0.4695652173913044
 40
0.4695652173913044
 40
0.4695652173913044
 40
0.4695652173913044
 40
0.4782608695652174
 40
0.4782608695652174
 40
0.4782608695652174
 40
0.4782608695652174
 40
0.4869565217391305
 40
0.4869565217391305
 40
0.4869565217391305
 40
0.4869565217391305
 40
0.4956521739130435
 40
0.4956521739130435
 40
0.4956521739130435
 40
0.4956521739130435
 40
0.5043478260869565
 40
0.5043478260869565
 40
0.5043478260869565
 40
0.5043478260869565
 40
0.5130434782608696
 40
0.5130434782608696
 40
0.5130434782608696
 40
0.5130434782608696
 40
0.5217391304347826
 40
0.5217391304347826
 40
0.5217391304347826
 40
0.5217391304347826
 40
0.5304347826086957
 40
0.5304347826086957
 40
0.5304347826086957
 40
0.5304347826086957
 40
0.5391304347826087
 40
0.5391304347826087
 40
0.5391304347826087
 40
0.5391304347826087
 40
0.5478260869565217
 40
0.5478260869565217
 40
0.5478260869565217
 40
0.5478260869565217
 40
0.5565217391304348
 40
0.5565217391304348
 40
0.5565217391304348
 40
0.5565217391304348
 40
0.5652173913043478
 40
0.5652173913043478
 40
0.5652173913043478
 40
0.5652173913043478
 40
0.5739130434782609
 40
0.5739130434782609
 40
0.5739130434782609
 40
0.5739130434782609
 40
0.5826086956521739
 40
0.5826086956521739
 40
0.5826086956521739
 40
0.5826086956521739
 40
0.591304347826087
 40
0.591304347826087
 40
0.591304347826087
 40
0.591304347826087
 40
0.6
 40
0.6
 40
0.6
 40
0.6
 40
0.6086956521739131
 40
0.6086956521739131
 40
0.6086956521739131
 40
0.6086956521739131
 40
0.6173913043478261
 40
0.6173913043478261
 40
0.6173913043478261
 40
0.6173913043478261
 40
0.6260869565217392
 40
0.6260869565217392
 40
0.6260869565217392
 40
0.6260869565217392
 40
0.6347826086956522
 40
0.6347826086956522
 40
0.6347826086956522
 40
0.6347826086956522
 40
0.6434782608695652
 40
0.6434782608695652
 40
0.6434782608695652
 40
0.6434782608695652
 40
0.6521739130434783
 40
0.6521739130434783
 40
0.6521739130434783
 40
0.6521739130434783
 40
0.6608695652173913
 40
0.6608695652173913
 40
0.6608695652173913
 40
0.6608695652173913
 40
0.6695652173913044
 40
0.6695652173913044
 40
0.6695652173913044
 40
0.6695652173913044
 40
0.6782608695652174
 40
0.6782608695652174
 40
0.6782608695652174
 40
0.6782608695652174
 40
0.6869565217391305
 40
0.6869565217391305
 40
0.6869565217391305
 40
0.6869565217391305
 40
0.6956521739130435
 40
0.6956521739130435
 40
0.6956521739130435
 40
0.6956521739130435
 40
0.7043478260869566
 40
0.7043478260869566
 40
0.7043478260869566
 40
0.7043478260869566
 40
0.7130434782608696
 40
0.7130434782608696
 40
0.7130434782608696
 40
0.7130434782608696
 40
0.7217391304347827
 40
0.7217391304347827
 40
0.7217391304347827
 40
0.7217391304347827
 40
0.7304347826086957
 40
0.7304347826086957
 40
0.7304347826086957
 40
0.7304347826086957
 40
0.7391304347826086
 40
0.7391304347826086
 40
0.7391304347826086
 40
0.7391304347826086
 40
0.7478260869565218
 40
0.7478260869565218
 40
0.7478260869565218
 40
0.7478260869565218
 40
0.7565217391304347
 40
0.7565217391304347
 40
0.7565217391304347
 40
0.7565217391304347
 40
0.7652173913043478
 40
0.7652173913043478
 40
0.7652173913043478
 40
0.7652173913043478
 40
0.7739130434782608
 40
0.7739130434782608
 40
0.7739130434782608
 40
0.7739130434782608
 40
0.782608695652174
 40
0.782608695652174
 40
0.782608695652174
 40
0.782608695652174
 40
0.7913043478260869
 40
0.7913043478260869
 40
0.7913043478260869
 40
0.7913043478260869
 40
0.8
 40
0.8
 40
0.8
 40
0.8
 40
0.808695652173913
 40
0.808695652173913
 40
0.808695652173913
 40
0.808695652173913
 40
0.8173913043478261
 40
0.8173913043478261
 40
0.8173913043478261
 40
0.8173913043478261
 40
0.8260869565217391
 40
0.8260869565217391
 40
0.8260869565217391
 40
0.8260869565217391
 40
0.8347826086956521
 40
0.8347826086956521
 40
0.8347826086956521
 40
0.8347826086956521
 40
0.8434782608695652
 40
0.8434782608695652
 40
0.8434782608695652
 40
0.8434782608695652
 40
0.8521739130434782
 40
0.8521739130434782
 40
0.8521739130434782
 40
0.8521739130434782
 40
0.8608695652173913
 40
0.8608695652173913
 40
0.8608695652173913
 40
0.8608695652173913
 40
0.8695652173913043
 40
0.8695652173913043
 40
0.8695652173913043
 40
0.8695652173913043
 40
0.8782608695652174
 40
0.8782608695652174
 40
0.8782608695652174
 40
0.8782608695652174
 40
0.8869565217391304
 40
0.8869565217391304
 40
0.8869565217391304
 40
0.8869565217391304
 40
0.8956521739130435
 40
0.8956521739130435
 40
0.8956521739130435
 40
0.8956521739130435
 40
0.9043478260869565
 40
0.9043478260869565
 40
0.9043478260869565
 40
0.9043478260869565
 40
0.9130434782608695
 40
0.9130434782608695
 40
0.9130434782608695
 40
0.9130434782608695
 40
0.9217391304347826
 40
0.9217391304347826
 40
0.9217391304347826
 40
0.9217391304347826
 40
0.9304347826086956
 40
0.9304347826086956
 40
0.9304347826086956
 40
0.9304347826086956
 40
0.9391304347826087
 40
0.9391304347826087
 40
0.9391304347826087
 40
0.9391304347826087
 40
0.9478260869565217
 40
0.9478260869565217
 40
0.9478260869565217
 40
0.9478260869565217
 40
0.9565217391304348
 40
0.9565217391304348
 40
0.9565217391304348
 40
0.9565217391304348
 40
0.9652173913043478
 40
0.9652173913043478
 40
0.9652173913043478
 40
0.9652173913043478
 40
0.9739130434782609
 40
0.9739130434782609
 40
0.9739130434782609
 40
0.9739130434782609
 40
0.9826086956521739
 40
0.9826086956521739
 40
0.9826086956521739
 40
0.9826086956521739
 40
1.0
 40
1.0
 40
1.0
 40
1.0
 10
-59.0399
 20
107.4206
 30
0.0
 10
-57.9784
 20
107.4213
 30
0.0
 10
-56.9606
 20
107.8436
 30
0.0
 10
-56.2104
 20
108.5947
 30
0.0
 10
-56.2104
 20
108.5947
 30
0.0
 10
-55.4603
 20
109.3458
 30
0.0
 10
-55.0392
 20
110.3591
 30
0.0
 10
-55.0399
 20
111.4206
 30
0.0
 10
-55.0399
 20
111.4206
 30
0.0
 10
-55.0399
 20
111.4206
 30
0.0
 10
-55.0399
 20
115.4207
 30
0.0
 10
-55.0399
 20
115.4207
 30
0.0
 10
-55.0399
 20
115.4207
 30
0.0
 10
-55.0399
 20
115.4207
 30
0.0
 10
-52.0399
 20
115.4207
 30
0.0
 10
-52.0399
 20
115.4207
 30
0.0
 10
-52.0399
 20
115.4207
 30
0.0
 10
-52.0399
 20
115.4207
 30
0.0
 10
-52.0399
 20
119.4206
 30
0.0
 10
-52.0399
 20
119.4206
 30
0.0
 10
-52.0399
 20
119.4206
 30
0.0
 10
-52.0399
 20
119.4206
 30
0.0
 10
-55.0399
 20
119.4206
 30
0.0
 10
-55.0399
 20
119.4206
 30
0.0
 10
-55.0399
 20
119.4206
 30
0.0
 10
-55.0399
 20
119.4206
 30
0.0
 10
-55.0399
 20
123.4206
 30
0.0
 10
-55.0399
 20
123.4206
 30
0.0
 10
-55.0399
 20
123.4206
 30
0.0
 10
-55.0406
 20
124.4808
 30
0.0
 10
-54.6201
 20
125.4979
 30
0.0
 10
-53.8709
 20
126.248
 30
0.0
 10
-53.8709
 20
126.248
 30
0.0
 10
-53.1217
 20
126.9982
 30
0.0
 10
-52.1001
 20
127.42
 30
0.0
 10
-51.0399
 20
127.4206
 30
0.0
 10
-51.0399
 20
127.4206
 30
0.0
 10
-51.0399
 20
127.4206
 30
0.0
 10
-47.0399
 20
127.4206
 30
0.0
 10
-47.0399
 20
127.4206
 30
0.0
 10
-47.0399
 20
127.4206
 30
0.0
 10
-47.0399
 20
127.4206
 30
0.0
 10
-47.0399
 20
124.4206
 30
0.0
 10
-47.0399
 20
124.4206
 30
0.0
 10
-47.0399
 20
124.4206
 30
0.0
 10
-47.0399
 20
124.4206
 30
0.0
 10
-43.04
 20
124.4206
 30
0.0
 10
-43.04
 20
124.4206
 30
0.0
 10
-43.04
 20
124.4206
 30
0.0
 10
-43.04
 20
124.4206
 30
0.0
 10
-43.04
 20
127.4206
 30
0.0
 10
-43.04
 20
127.4206
 30
0.0
 10
-43.04
 20
127.4206
 30
0.0
 10
-43.04
 20
127.4206
 30
0.0
 10
-39.04
 20
127.4206
 30
0.0
 10
-39.04
 20
127.4206
 30
0.0
 10
-39.04
 20
127.4206
 30
0.0
 10
-37.9798
 20
127.4213
 30
0.0
 10
-36.9627
 20
127.0008
 30
0.0
 10
-36.2125
 20
126.2516
 30
0.0
 10
-36.2125
 20
126.2516
 30
0.0
 10
-35.4624
 20
125.5024
 30
0.0
 10
-35.0406
 20
124.4808
 30
0.0
 10
-35.0399
 20
123.4206
 30
0.0
 10
-35.0399
 20
123.4206
 30
0.0
 10
-35.0399
 20
123.4206
 30
0.0
 10
-35.0399
 20
119.4206
 30
0.0
 10
-35.0399
 20
119.4206
 30
0.0
 10
-35.0399
 20
119.4206
 30
0.0
 10
-35.0399
 20
119.4206
 30
0.0
 10
-38.0399
 20
119.4206
 30
0.0
 10
-38.0399
 20
119.4206
 30
0.0
 10
-38.0399
 20
119.4206
 30
0.0
 10
-38.0399
 20
119.4206
 30
0.0
 10
-38.0399
 20
115.4207
 30
0.0
 10
-38.0399
 20
115.4207
 30
0.0
 10
-38.0399
 20
115.4207
 30
0.0
 10
-38.0399
 20
115.4207
 30
0.0
 10
-35.0399
 20
115.4207
 30
0.0
 10
-35.0399
 20
115.4207
 30
0.0
 10
-35.0399
 20
115.4207
 30
0.0
 10
-35.0399
 20
115.4207
 30
0.0
 10
-35.0399
 20
111.4207
 30
0.0
 10
-35.0399
 20
111.4207
 30
0.0
 10
-35.0399
 20
111.4207
 30
0.0
 10
-35.0392
 20
110.3592
 30
0.0
 10
-34.6169
 20
109.3414
 30
0.0
 10
-33.8658
 20
108.5912
 30
0.0
 10
-33.8658
 20
108.5912
 30
0.0
 10
-33.1147
 20
107.8411
 30
0.0
 10
-32.1014
 20
107.42
 30
0.0
 10
-31.0399
 20
107.4207
 30
0.0
 10
-31.0399
 20
107.4207
 30
0.0
 10
-31.0399
 20
107.4207
 30
0.0
 10
-27.0399
 20
107.4207
 30
0.0
 10
-27.0399
 20
107.4207
 30
0.0
 10
-27.0399
 20
107.4207
 30
0.0
 10
-27.0399
 20
107.4207
 30
0.0
 10
-27.0399
 20
104.4207
 30
0.0
 10
-27.0399
 20
104.4207
 30
0.0
 10
-27.0399
 20
104.4207
 30
0.0
 10
-27.0399
 20
104.4207
 30
0.0
 10
-23.04
 20
104.4207
 30
0.0
 10
-23.04
 20
104.4207
 30
0.0
 10
-23.04
 20
104.4207
 30
0.0
 10
-23.04
 20
104.4207
 30
0.0
 10
-23.04
 20
107.4207
 30
0.0
 10
-23.04
 20
107.4207
 30
0.0
 10
-23.04
 20
107.4207
 30
0.0
 10
-23.04
 20
107.4207
 30
0.0
 10
-19.04
 20
107.4207
 30
0.0
 10
-19.04
 20
107.4207
 30
0.0
 10
-19.04
 20
107.4207
 30
0.0
 10
-17.9798
 20
107.4214
 30
0.0
 10
-16.9627
 20
107.0009
 30
0.0
 10
-16.2125
 20
106.2517
 30
0.0
 10
-16.2125
 20
106.2517
 30
0.0
 10
-15.4624
 20
105.5025
 30
0.0
 10
-15.0406
 20
104.4809
 30
0.0
 10
-15.0399
 20
103.4207
 30
0.0
 10
-15.0399
 20
103.4207
 30
0.0
 10
-15.0399
 20
103.4207
 30
0.0
 10
-15.0399
 20
99.4207
 30
0.0
 10
-15.0399
 20
99.4207
 30
0.0
 10
-15.0399
 20
99.4207
 30
0.0
 10
-15.0399
 20
99.4207
 30
0.0
 10
-18.0399
 20
99.4207
 30
0.0
 10
-18.0399
 20
99.4207
 30
0.0
 10
-18.0399
 20
99.4207
 30
0.0
 10
-18.0399
 20
99.4207
 30
0.0
 10
-18.0399
 20
95.4208
 30
0.0
 10
-18.0399
 20
95.4208
 30
0.0
 10
-18.0399
 20
95.4208
 30
0.0
 10
-18.0399
 20
95.4208
 30
0.0
 10
-15.0399
 20
95.4208
 30
0.0
 10
-15.0399
 20
95.4208
 30
0.0
 10
-15.0399
 20
95.4208
 30
0.0
 10
-15.0399
 20
95.4208
 30
0.0
 10
-15.0399
 20
91.4208
 30
0.0
 10
-15.0399
 20
91.4208
 30
0.0
 10
-15.0399
 20
91.4208
 30
0.0
 10
-15.0385
 20
89.2102
 30
0.0
 10
-13.2504
 20
87.4194
 30
0.0
 10
-11.0399
 20
87.4208
 30
0.0
 10
-11.0399
 20
87.4208
 30
0.0
 10
-11.0399
 20
87.4208
 30
0.0
 10
-7.0399
 20
87.4208
 30
0.0
 10
-7.0399
 20
87.4208
 30
0.0
 10
-7.0399
 20
87.4208
 30
0.0
 10
-7.0399
 20
87.4208
 30
0.0
 10
-7.0399
 20
84.4208
 30
0.0
 10
-7.0399
 20
84.4208
 30
0.0
 10
-7.0399
 20
84.4208
 30
0.0
 10
-7.0399
 20
84.4208
 30
0.0
 10
-3.04
 20
84.4208
 30
0.0
 10
-3.04
 20
84.4208
 30
0.0
 10
-3.04
 20
84.4208
 30
0.0
 10
-3.04
 20
84.4208
 30
0.0
 10
-3.04
 20
87.4208
 30
0.0
 10
-3.04
 20
87.4208
 30
0.0
 10
-3.04
 20
87.4208
 30
0.0
 10
-3.04
 20
87.4208
 30
0.0
 10
0.96
 20
87.4208
 30
0.0
 10
0.96
 20
87.4208
 30
0.0
 10
0.96
 20
87.4208
 30
0.0
 10
2.0202
 20
87.4214
 30
0.0
 10
3.0373
 20
87.0009
 30
0.0
 10
3.7874
 20
86.2517
 30
0.0
 10
3.7874
 20
86.2517
 30
0.0
 10
4.5376
 20
85.5025
 30
0.0
 10
4.9594
 20
84.481
 30
0.0
 10
4.96
 20
83.4208
 30
0.0
 10
4.96
 20
83.4208
 30
0.0
 10
4.96
 20
83.4208
 30
0.0
 10
4.96
 20
79.4207
 30
0.0
 10
4.96
 20
79.4207
 30
0.0
 10
4.96
 20
79.4207
 30
0.0
 10
4.96
 20
79.4207
 30
0.0
 10
1.96
 20
79.4207
 30
0.0
 10
1.96
 20
79.4207
 30
0.0
 10
1.96
 20
79.4207
 30
0.0
 10
1.96
 20
79.4207
 30
0.0
 10
1.96
 20
75.4208
 30
0.0
 10
1.96
 20
75.4208
 30
0.0
 10
1.96
 20
75.4208
 30
0.0
 10
1.96
 20
75.4208
 30
0.0
 10
4.96
 20
75.4208
 30
0.0
 10
4.96
 20
75.4208
 30
0.0
 10
4.96
 20
75.4208
 30
0.0
 10
4.96
 20
75.4208
 30
0.0
 10
4.96
 20
71.4208
 30
0.0
 10
4.96
 20
71.4208
 30
0.0
 10
4.96
 20
71.4208
 30
0.0
 10
4.9607
 20
70.3606
 30
0.0
 10
4.5402
 20
69.3435
 30
0.0
 10
3.791
 20
68.5934
 30
0.0
 10
3.791
 20
68.5934
 30
0.0
 10
3.0418
 20
67.8432
 30
0.0
 10
2.0202
 20
67.4214
 30
0.0
 10
0.96
 20
67.4208
 30
0.0
 10
0.96
 20
67.4208
 30
0.0
 10
0.96
 20
67.4208
 30
0.0
 10
-3.04
 20
67.4208
 30
0.0
 10
-3.04
 20
67.4208
 30
0.0
 10
-3.04
 20
67.4208
 30
0.0
 10
-3.04
 20
67.4208
 30
0.0
 10
-3.04
 20
70.4208
 30
0.0
 10
-3.04
 20
70.4208
 30
0.0
 10
-3.04
 20
70.4208
 30
0.0
 10
-3.04
 20
70.4208
 30
0.0
 10
-7.0399
 20
70.4208
 30
0.0
 10
-7.0399
 20
70.4208
 30
0.0
 10
-7.0399
 20
70.4208
 30
0.0
 10
-7.0399
 20
70.4208
 30
0.0
 10
-7.0399
 20
67.4208
 30
0.0
 10
-7.0399
 20
67.4208
 30
0.0
 10
-7.0399
 20
67.4208
 30
0.0
 10
-7.0399
 20
67.4208
 30
0.0
 10
-11.0421
 20
67.4208
 30
0.0
 10
-11.0421
 20
67.4208
 30
0.0
 10
-11.0421
 20
67.4208
 30
0.0
 10
-12.1036
 20
67.4201
 30
0.0
 10
-13.1214
 20
66.9978
 30
0.0
 10
-13.8715
 20
66.2467
 30
0.0
 10
-13.8715
 20
66.2467
 30
0.0
 10
-14.6217
 20
65.4956
 30
0.0
 10
-15.0427
 20
64.4823
 30
0.0
 10
-15.0421
 20
63.4208
 30
0.0
 10
-15.0421
 20
63.4208
 30
0.0
 10
-15.0421
 20
63.4208
 30
0.0
 10
-15.0421
 20
59.4207
 30
0.0
 10
-15.0421
 20
59.4207
 30
0.0
 10
-15.0421
 20
59.4207
 30
0.0
 10
-15.0421
 20
59.4207
 30
0.0
 10
-18.0421
 20
59.4207
 30
0.0
 10
-18.0421
 20
59.4207
 30
0.0
 10
-18.0421
 20
59.4207
 30
0.0
 10
-18.0421
 20
59.4207
 30
0.0
 10
-18.0421
 20
55.4208
 30
0.0
 10
-18.0421
 20
55.4208
 30
0.0
 10
-18.0421
 20
55.4208
 30
0.0
 10
-18.0421
 20
55.4208
 30
0.0
 10
-15.0421
 20
55.4208
 30
0.0
 10
-15.0421
 20
55.4208
 30
0.0
 10
-15.0421
 20
55.4208
 30
0.0
 10
-15.0421
 20
55.4208
 30
0.0
 10
-15.0421
 20
51.4208
 30
0.0
 10
-15.0421
 20
51.4208
 30
0.0
 10
-15.0421
 20
51.4208
 30
0.0
 10
-15.0414
 20
50.3606
 30
0.0
 10
-15.4619
 20
49.3435
 30
0.0
 10
-16.2111
 20
48.5934
 30
0.0
 10
-16.2111
 20
48.5934
 30
0.0
 10
-16.9603
 20
47.8432
 30
0.0
 10
-17.9819
 20
47.4214
 30
0.0
 10
-19.0421
 20
47.4208
 30
0.0
 10
-19.0421
 20
47.4208
 30
0.0
 10
-19.0421
 20
47.4208
 30
0.0
 10
-23.0421
 20
47.4208
 30
0.0
 10
-23.0421
 20
47.4208
 30
0.0
 10
-23.0421
 20
47.4208
 30
0.0
 10
-23.0421
 20
47.4208
 30
0.0
 10
-23.0421
 20
50.4208
 30
0.0
 10
-23.0421
 20
50.4208
 30
0.0
 10
-23.0421
 20
50.4208
 30
0.0
 10
-23.0421
 20
50.4208
 30
0.0
 10
-27.042
 20
50.4208
 30
0.0
 10
-27.042
 20
50.4208
 30
0.0
 10
-27.042
 20
50.4208
 30
0.0
 10
-27.042
 20
50.4208
 30
0.0
 10
-27.042
 20
47.4208
 30
0.0
 10
-27.042
 20
47.4208
 30
0.0
 10
-27.042
 20
47.4208
 30
0.0
 10
-27.042
 20
47.4208
 30
0.0
 10
-63.0421
 20
47.4208
 30
0.0
 10
-63.0421
 20
47.4208
 30
0.0
 10
-63.0421
 20
47.4208
 30
0.0
 10
-63.0421
 20
47.4208
 30
0.0
 10
-63.0421
 20
50.4208
 30
0.0
 10
-63.0421
 20
50.4208
 30
0.0
 10
-63.0421
 20
50.4208
 30
0.0
 10
-63.0421
 20
50.4208
 30
0.0
 10
-67.042
 20
50.4208
 30
0.0
 10
-67.042
 20
50.4208
 30
0.0
 10
-67.042
 20
50.4208
 30
0.0
 10
-67.042
 20
50.4208
 30
0.0
 10
-67.042
 20
47.4208
 30
0.0
 10
-67.042
 20
47.4208
 30
0.0
 10
-67.042
 20
47.4208
 30
0.0
 10
-67.042
 20
47.4208
 30
0.0
 10
-71.042
 20
47.4208
 30
0.0
 10
-71.042
 20
47.4208
 30
0.0
 10
-71.042
 20
47.4208
 30
0.0
 10
-72.1022
 20
47.4201
 30
0.0
 10
-73.1193
 20
47.8406
 30
0.0
 10
-73.8694
 20
48.5898
 30
0.0
 10
-73.8694
 20
48.5898
 30
0.0
 10
-74.6196
 20
49.339
 30
0.0
 10
-75.0414
 20
50.3606
 30
0.0
 10
-75.0421
 20
51.4208
 30
0.0
 10
-75.0421
 20
51.4208
 30
0.0
 10
-75.0421
 20
51.4208
 30
0.0
 10
-75.0421
 20
55.4208
 30
0.0
 10
-75.0421
 20
55.4208
 30
0.0
 10
-75.0421
 20
55.4208
 30
0.0
 10
-75.0421
 20
55.4208
 30
0.0
 10
-72.0421
 20
55.4208
 30
0.0
 10
-72.0421
 20
55.4208
 30
0.0
 10
-72.0421
 20
55.4208
 30
0.0
 10
-72.0421
 20
55.4208
 30
0.0
 10
-72.0421
 20
59.4208
 30
0.0
 10
-72.0421
 20
59.4208
 30
0.0
 10
-72.0421
 20
59.4208
 30
0.0
 10
-72.0421
 20
59.4208
 30
0.0
 10
-75.0421
 20
59.4208
 30
0.0
 10
-75.0421
 20
59.4208
 30
0.0
 10
-75.0421
 20
59.4208
 30
0.0
 10
-75.0421
 20
59.4208
 30
0.0
 10
-75.0421
 20
63.4208
 30
0.0
 10
-75.0421
 20
63.4208
 30
0.0
 10
-75.0421
 20
63.4208
 30
0.0
 10
-75.0434
 20
65.6285
 30
0.0
 10
-73.2498
 20
67.4194
 30
0.0
 10
-71.0421
 20
67.4208
 30
0.0
 10
-71.0421
 20
67.4208
 30
0.0
 10
-71.0421
 20
67.4208
 30
0.0
 10
-67.0421
 20
67.4208
 30
0.0
 10
-67.0421
 20
67.4208
 30
0.0
 10
-67.0421
 20
67.4208
 30
0.0
 10
-67.0421
 20
67.4208
 30
0.0
 10
-67.0421
 20
64.4208
 30
0.0
 10
-67.0421
 20
64.4208
 30
0.0
 10
-67.0421
 20
64.4208
 30
0.0
 10
-67.0421
 20
64.4208
 30
0.0
 10
-63.0421
 20
64.4208
 30
0.0
 10
-63.0421
 20
64.4208
 30
0.0
 10
-63.0421
 20
64.4208
 30
0.0
 10
-63.0421
 20
64.4208
 30
0.0
 10
-63.0421
 20
67.4208
 30
0.0
 10
-63.0421
 20
67.4208
 30
0.0
 10
-63.0421
 20
67.4208
 30
0.0
 10
-63.0421
 20
67.4208
 30
0.0
 10
-59.04
 20
67.4208
 30
0.0
 10
-59.04
 20
67.4208
 30
0.0
 10
-59.04
 20
67.4208
 30
0.0
 10
-57.9784
 20
67.4214
 30
0.0
 10
-56.9606
 20
67.8438
 30
0.0
 10
-56.2105
 20
68.5949
 30
0.0
 10
-56.2105
 20
68.5949
 30
0.0
 10
-55.4603
 20
69.346
 30
0.0
 10
-55.0393
 20
70.3592
 30
0.0
 10
-55.04
 20
71.4208
 30
0.0
 10
-55.04
 20
71.4208
 30
0.0
 10
-55.04
 20
71.4208
 30
0.0
 10
-55.04
 20
75.4208
 30
0.0
 10
-55.04
 20
75.4208
 30
0.0
 10
-55.04
 20
75.4208
 30
0.0
 10
-55.04
 20
75.4208
 30
0.0
 10
-52.04
 20
75.4208
 30
0.0
 10
-52.04
 20
75.4208
 30
0.0
 10
-52.04
 20
75.4208
 30
0.0
 10
-52.04
 20
75.4208
 30
0.0
 10
-52.04
 20
79.4207
 30
0.0
 10
-52.04
 20
79.4207
 30
0.0
 10
-52.04
 20
79.4207
 30
0.0
 10
-52.04
 20
79.4207
 30
0.0
 10
-55.04
 20
79.4207
 30
0.0
 10
-55.04
 20
79.4207
 30
0.0
 10
-55.04
 20
79.4207
 30
0.0
 10
-55.04
 20
79.4207
 30
0.0
 10
-55.04
 20
83.4207
 30
0.0
 10
-55.04
 20
83.4207
 30
0.0
 10
-55.04
 20
83.4207
 30
0.0
 10
-55.0406
 20
84.4823
 30
0.0
 10
-55.463
 20
85.5001
 30
0.0
 10
-56.2141
 20
86.2502
 30
0.0
 10
-56.2141
 20
86.2502
 30
0.0
 10
-56.9652
 20
87.0004
 30
0.0
 10
-57.9784
 20
87.4214
 30
0.0
 10
-59.04
 20
87.4208
 30
0.0
 10
-59.04
 20
87.4208
 30
0.0
 10
-59.04
 20
87.4208
 30
0.0
 10
-63.04
 20
87.4208
 30
0.0
 10
-63.04
 20
87.4208
 30
0.0
 10
-63.04
 20
87.4208
 30
0.0
 10
-63.04
 20
87.4208
 30
0.0
 10
-63.04
 20
90.4208
 30
0.0
 10
-63.04
 20
90.4208
 30
0.0
 10
-63.04
 20
90.4208
 30
0.0
 10
-63.04
 20
90.4208
 30
0.0
 10
-67.0399
 20
90.4208
 30
0.0
 10
-67.0399
 20
90.4208
 30
0.0
 10
-67.0399
 20
90.4208
 30
0.0
 10
-67.0399
 20
90.4208
 30
0.0
 10
-67.0399
 20
87.4208
 30
0.0
 10
-67.0399
 20
87.4208
 30
0.0
 10
-67.0399
 20
87.4208
 30
0.0
 10
-67.0399
 20
87.4208
 30
0.0
 10
-71.0399
 20
87.4208
 30
0.0
 10
-71.0399
 20
87.4208
 30
0.0
 10
-71.0399
 20
87.4208
 30
0.0
 10
-72.1001
 20
87.4201
 30
0.0
 10
-73.1171
 20
87.8406
 30
0.0
 10
-73.8673
 20
88.5898
 30
0.0
 10
-73.8673
 20
88.5898
 30
0.0
 10
-74.6174
 20
89.339
 30
0.0
 10
-75.0392
 20
90.3606
 30
0.0
 10
-75.0399
 20
91.4208
 30
0.0
 10
-75.0399
 20
91.4208
 30
0.0
 10
-75.0399
 20
91.4208
 30
0.0
 10
-75.0399
 20
95.4208
 30
0.0
 10
-75.0399
 20
95.4208
 30
0.0
 10
-75.0399
 20
95.4208
 30
0.0
 10
-75.0399
 20
95.4208
 30
0.0
 10
-72.0399
 20
95.4208
 30
0.0
 10
-72.0399
 20
95.4208
 30
0.0
 10
-72.0399
 20
95.4208
 30
0.0
 10
-72.0399
 20
95.4208
 30
0.0
 10
-72.0399
 20
99.4207
 30
0.0
 10
-72.0399
 20
99.4207
 30
0.0
 10
-72.0399
 20
99.4207
 30
0.0
 10
-72.0399
 20
99.4207
 30
0.0
 10
-75.0399
 20
99.4207
 30
0.0
 10
-75.0399
 20
99.4207
 30
0.0
 10
-75.0399
 20
99.4207
 30
0.0
 10
-75.0399
 20
99.4207
 30
0.0
 10
-75.0399
 20
103.4206
 30
0.0
 10
-75.0399
 20
103.4206
 30
0.0
 10
-75.0399
 20
103.4206
 30
0.0
 10
-75.0406
 20
104.4808
 30
0.0
 10
-74.6201
 20
105.4979
 30
0.0
 10
-73.8709
 20
106.248
 30
0.0
 10
-73.8709
 20
106.248
 30
0.0
 10
-73.1217
 20
106.9982
 30
0.0
 10
-72.1001
 20
107.42
 30
0.0
 10
-71.0399
 20
107.4206
 30
0.0
 10
-71.0399
 20
107.4206
 30
0.0
 10
-71.0399
 20
107.4206
 30
0.0
 10
-67.0399
 20
107.4206
 30
0.0
 10
-67.0399
 20
107.4206
 30
0.0
 10
-67.0399
 20
107.4206
 30
0.0
 10
-67.0399
 20
107.4206
 30
0.0
 10
-67.0399
 20
104.4206
 30
0.0
 10
-67.0399
 20
104.4206
 30
0.0
 10
-67.0399
 20
104.4206
 30
0.0
 10
-67.0399
 20
104.4206
 30
0.0
 10
-63.04
 20
104.4206
 30
0.0
 10
-63.04
 20
104.4206
 30
0.0
 10
-63.04
 20
104.4206
 30
0.0
 10
-63.04
 20
104.4206
 30
0.0
 10
-63.04
 20
107.4206
 30
0.0
 10
-63.04
 20
107.4206
 30
0.0
 10
-63.04
 20
107.4206
 30
0.0
 10
-63.04
 20
107.4206
 30
0.0
 10
-59.0399
 20
107.4206
 30
0.0
 10
-59.0399
 20
107.4206
 30
0.0
  0
SPLINE
  5
7A
330
1F
100
AcDbEntity
  8
0
100
AcDbSpline
210
0.0
220
0.0
230
1.0
 70
    11
 71
     3
 72
    52
 73
    48
 74
     0
 42
0.000000001
 43
0.0000000001
 40
0.0
 40
0.0
 40
0.0
 40
0.0
 40
0.0769230769230769
 40
0.0769230769230769
 40
0.0769230769230769
 40
0.0769230769230769
 40
0.1538461538461539
 40
0.1538461538461539
 40
0.1538461538461539
 40
0.1538461538461539
 40
0.2307692307692308
 40
0.2307692307692308
 40
0.2307692307692308
 40
0.2307692307692308
 40
0.3076923076923077
 40
0.3076923076923077
 40
0.3076923076923077
 40
0.3076923076923077
 40
0.3846153846153846
 40
0.3846153846153846
 40
0.3846153846153846
 40
0.3846153846153846
 40
0.4615384615384616
 40
0.4615384615384616
 40
0.4615384615384616
 40
0.4615384615384616
 40
0.5384615384615384
 40
0.5384615384615384
 40
0.5384615384615384
 40
0.5384615384615384
 40
0.6153846153846154
 40
0.6153846153846154
 40
0.6153846153846154
 40
0.6153846153846154
 40
0.6923076923076923
 40
0.6923076923076923
 40
0.6923076923076923
 40
0.6923076923076923
 40
0.7692307692307693
 40
0.7692307692307693
 40
0.7692307692307693
 40
0.7692307692307693
 40
0.8461538461538461
 40
0.8461538461538461
 40
0.8461538461538461
 40
0.8461538461538461
 40
1.0
 40
1.0
 40
1.0
 40
1.0
 10
36.9435
 20
82.6832
 30
0.0
 10
36.9435
 20
82.6832
 30
0.0
 10
36.9435
 20
72.6832
 30
0.0
 10
36.9435
 20
72.6832
 30
0.0
 10
36.9435
 20
72.6832
 30
0.0
 10
36.9435
 20
72.6832
 30
0.0
 10
32.9435
 20
72.6832
 30
0.0
 10
32.9435
 20
72.6832
 30
0.0
 10
32.9435
 20
72.6832
 30
0.0
 10
32.9435
 20
72.6832
 30
0.0
 10
32.9435
 20
69.6832
 30
0.0
 10
32.9435
 20
69.6832
 30
0.0
 10
32.9435
 20
69.6832
 30
0.0
 10
32.9435
 20
69.6832
 30
0.0
 10
28.9435
 20
69.6832
 30
0.0
 10
28.9435
 20
69.6832
 30
0.0
 10
28.9435
 20
69.6832
 30
0.0
 10
28.9435
 20
69.6832
 30
0.0
 10
28.9435
 20
72.6832
 30
0.0
 10
28.9435
 20
72.6832
 30
0.0
 10
28.9435
 20
72.6832
 30
0.0
 10
28.9435
 20
72.6832
 30
0.0
 10
24.9435
 20
72.6832
 30
0.0
 10
24.9435
 20
72.6832
 30
0.0
 10
24.9435
 20
72.6832
 30
0.0
 10
24.9435
 20
72.6832
 30
0.0
 10
24.9435
 20
82.6832
 30
0.0
 10
24.9435
 20
82.6832
 30
0.0
 10
24.9435
 20
82.6832
 30
0.0
 10
24.9435
 20
82.6832
 30
0.0
 10
28.9435
 20
82.6832
 30
0.0
 10
28.9435
 20
82.6832
 30
0.0
 10
28.9435
 20
82.6832
 30
0.0
 10
28.9435
 20
82.6832
 30
0.0
 10
28.9435
 20
85.6832
 30
0.0
 10
28.9435
 20
85.6832
 30
0.0
 10
28.9435
 20
85.6832
 30
0.0
 10
28.9435
 20
85.6832
 30
0.0
 10
32.9435
 20
85.6832
 30
0.0
 10
32.9435
 20
85.6832
 30
0.0
 10
32.9435
 20
85.6832
 30
0.0
 10
32.9435
 20
85.6832
 30
0.0
 10
32.9435
 20
82.6832
 30
0.0
 10
32.9435
 20
82.6832
 30
0.0
 10
32.9435
 20
82.6832
 30
0.0
 10
32.9435
 20
82.6832
 30
0.0
 10
36.9435
 20
82.6832
 30
0.0
 10
36.9435
 20
82.6832
 30
0.0
  0
ENDSEC
  0
SECTION
  2
OBJECTS
  0
DICTIONARY
  5
C
330
0
100
AcDbDictionary
  3
ACAD_GROUP
350
D
  3
ACAD_LAYOUT
350
1A
  3
ACAD_MATERIAL
350
43
  3
ACAD_MLEADERSTYLE
350
6B
  3
ACAD_MLINESTYLE
350
17
  3
ACAD_PLOTSETTINGS
350
19
  3
ACAD_SCALELIST
350
47
  3
ACAD_VISUALSTYLE
350
2A
  3
ACDBHEADERROUNDTRIPXREC
350
7B
  3
ACDBVARIABLEDICTIONARY
350
9C
  0
DICTIONARY
  5
A3
330
8
100
AcDbDictionary
280
     1
  3
ACAD_XREC_ROUNDTRIP
360
A4
  0
DICTIONARY
  5
D
102
{ACAD_REACTORS
330
C
102
}
330
C
100
AcDbDictionary
  0
DICTIONARY
  5
1A
102
{ACAD_REACTORS
330
C
102
}
330
C
100
AcDbDictionary
  0
DICTIONARY
  5
43
102
{ACAD_REACTORS
330
C
102
}
330
C
100
AcDbDictionary
  3
BYBLOCK
350
45
  3
BYLAYER
350
44
  3
GLOBAL
350
46
  0
DICTIONARY
  5
6B
102
{ACAD_REACTORS
330
C
102
}
330
C
100
AcDbDictionary
  3
STANDARD
350
6C
  0
DICTIONARY
  5
17
102
{ACAD_REACTORS
330
C
102
}
330
C
100
AcDbDictionary
  3
STANDARD
350
18
  0
DICTIONARY
  5
19
102
{ACAD_REACTORS
330
C
102
}
330
C
100
AcDbDictionary
  0
DICTIONARY
  5
47
102
{ACAD_REACTORS
330
C
102
}
330
C
100
AcDbDictionary
  3
A0
350
48
  3
A1
350
49
  3
A2
350
4A
  3
A3
350
4B
  3
A4
350
4C
  3
A5
350
4D
  3
A6
350
4E
  3
A7
350
4F
  3
A8
350
50
  3
A9
350
51
  3
B0
350
52
  3
B1
350
53
  3
B2
350
54
  3
B3
350
55
  3
B4
350
56
  3
B5
350
57
  3
B6
350
58
  3
B7
350
59
  3
B8
350
5A
  3
B9
350
5B
  3
C0
350
5C
  3
C1
350
5D
  3
C2
350
5E
  3
C3
350
5F
  3
C4
350
60
  3
C5
350
61
  3
C6
350
62
  3
C7
350
63
  3
C8
350
64
  3
C9
350
65
  3
D0
350
66
  3
D1
350
67
  3
D2
350
68
  0
DICTIONARY
  5
2A
102
{ACAD_REACTORS
330
C
102
}
330
C
100
AcDbDictionary
  3
2DWIREFRAME
350
2F
  3
BASIC
350
32
  3
BRIGHTEN
350
36
  3
COLORCHANGE
350
3A
  3
CONCEPTUAL
350
34
  3
DIM
350
35
  3
EDGECOLOROFF
350
3D
  3
FACEPATTERN
350
39
  3
FLAT
350
2B
  3
FLATWITHEDGES
350
2C
  3
GOURAUD
350
2D
  3
GOURAUDWITHEDGES
350
2E
  3
HIDDEN
350
31
  3
JITTEROFF
350
3B
  3
LINEPATTERN
350
38
  3
OVERHANGOFF
350
3C
  3
REALISTIC
350
33
  3
SHADED
350
42
  3
SHADED_WITH_EDGES
350
41
  3
SHADES_OF_GRAY
350
3E
  3
SKETCHY
350
3F
  3
THICKEN
350
37
  3
WIREFRAME
350
30
  3
X-RAY
350
40
  0
DICTIONARY
  5
7B
102
{ACAD_REACTORS
330
C
102
}
330
C
100
AcDbDictionary
  3
CEPSNID
350
85
  3
CEPSNTYPE
350
84
  3
DIMSTYLEDATA
350
9B
  3
FINGERPRINTGUID
350
86
  3
HYPERLINKBASE
350
7E
  3
INSUNITS
350
83
  3
LAYOUTDICT
350
80
  3
LWETCUNION
350
82
  3
PLOTSETDICT
350
81
  3
PSVPSCALE
350
88
  3
PUCSBASE
350
8B
  3
PUCSORGBACK
350
91
  3
PUCSORGBOTTOM
350
8D
  3
PUCSORGFRONT
350
90
  3
PUCSORGLEFT
350
8E
  3
PUCSORGRIGHT
350
8F
  3
PUCSORGTOP
350
8C
  3
PUCSORTHOREF
350
89
  3
PUCSORTHOVIEW
350
8A
  3
STYLESHEET
350
7F
  3
TSTACKALIGN
350
7C
  3
TSTACKSIZE
350
7D
  3
UCSBASE
350
94
  3
UCSORGBACK
350
9A
  3
UCSORGBOTTOM
350
96
  3
UCSORGFRONT
350
99
  3
UCSORGLEFT
350
97
  3
UCSORGRIGHT
350
98
  3
UCSORGTOP
350
95
  3
UCSORTHOREF
350
92
  3
UCSORTHOVIEW
350
93
  3
VERSIONGUID
350
87
  0
DICTIONARY
  5
9C
102
{ACAD_REACTORS
330
C
102
}
330
C
100
AcDbDictionary
  3
CANNOSCALE
350
A5
  3
CMLEADERSTYLE
350
9E
  3
CTABLESTYLE
350
9D
  3
DIMASSOC
350
A1
  3
HIDETEXT
350
A2
  3
MSLTSCALE
350
A6
  0
XRECORD
  5
A4
102
{ACAD_REACTORS
330
A3
102
}
330
A3
100
AcDbXrecord
102
VTR_0.000_0.000_1.000_1.000_VISUALSTYLE
340
2F
102
VTR_0.000_0.000_1.000_1.000_GRIDDISPLAY
 70
     3
102
VTR_0.000_0.000_1.000_1.000_GRIDMAJOR
 70
     5
102
VTR_0.000_0.000_1.000_1.000_DEFAULTLIGHTING
280
     1
102
VTR_0.000_0.000_1.000_1.000_DEFAULTLIGHTINGTYPE
 70
     1
102
VTR_0.000_0.000_1.000_1.000_BRIGHTNESS
141
0.0
102
VTR_0.000_0.000_1.000_1.000_CONTRAST
142
0.0
  0
MATERIAL
  5
45
102
{ACAD_REACTORS
330
43
102
}
102
{ACAD_XDICTIONARY
360
A9
102
}
330
43
100
AcDbMaterial
  1
BYBLOCK
  0
MATERIAL
  5
44
102
{ACAD_REACTORS
330
43
102
}
102
{ACAD_XDICTIONARY
360
A7
102
}
330
43
100
AcDbMaterial
  1
BYLAYER
  0
MATERIAL
  5
46
102
{ACAD_REACTORS
330
43
102
}
102
{ACAD_XDICTIONARY
360
AB
102
}
330
43
100
AcDbMaterial
  1
GLOBAL
  0
ACAD_PROXY_OBJECT
  5
6C
102
{ACAD_REACTORS
330
6B
102
}
330
6B
100
AcDbProxyObject
 90
      499
 91
      505
 93
      610
310
40901902A4063FBFFFFFE056BD1B81E855B9FC0AD7A3703D0AD73F4214DD185B99185C9900AD7A3703D0AC73F90141901A02B5E8DC0F42B1CFC02B5E8DC0F42B1CFE5764000000000000300FC0
340
14
340
0
340
11
340
0
 94
        0
1001
ACAD_MLEADERVER
1070
     2
  0
MLINESTYLE
  5
18
102
{ACAD_REACTORS
330
17
102
}
330
17
100
AcDbMlineStyle
  2
Standard
 70
     0
  3

 62
   256
 51
90.0
 52
90.0
 71
     2
 49
0.5
 62
   256
  6
BYLAYER
 49
-0.5
 62
   256
  6
BYLAYER
  0
ACAD_PROXY_OBJECT
  5
48
102
{ACAD_REACTORS
330
47
102
}
330
47
100
AcDbProxyObject
 90
      499
 91
      503
 93
       41
310
903313A31580
  0
ACAD_PROXY_OBJECT
  5
49
102
{ACAD_REACTORS
330
47
102
}
330
47
100
AcDbProxyObject
 90
      499
 91
      503
 93
      105
310
903313A324000000000000004000
  0
ACAD_PROXY_OBJECT
  5
4A
102
{ACAD_REACTORS
330
47
102
}
330
47
100
AcDbProxyObject
 90
      499
 91
      503
 93
      105
310
903313A344000000000000104000
  0
ACAD_PROXY_OBJECT
  5
4B
102
{ACAD_REACTORS
330
47
102
}
330
47
100
AcDbProxyObject
 90
      499
 91
      503
 93
      105
310
903313A354000000000000144000
  0
ACAD_PROXY_OBJECT
  5
4C
102
{ACAD_REACTORS
330
47
102
}
330
47
100
AcDbProxyObject
 90
      499
 91
      503
 93
      105
310
903313A384000000000000204000
  0
ACAD_PROXY_OBJECT
  5
4D
102
{ACAD_REACTORS
330
47
102
}
330
47
100
AcDbProxyObject
 90
      499
 91
      503
 93
      113
310
904313A31304000000000000244000
  0
ACAD_PROXY_OBJECT
  5
4E
102
{ACAD_REACTORS
330
47
102
}
330
47
100
AcDbProxyObject
 90
      499
 91
      503
 93
      113
310
904313A31364000000000000304000
  0
ACAD_PROXY_OBJECT
  5
4F
102
{ACAD_REACTORS
330
47
102
}
330
47
100
AcDbProxyObject
 90
      499
 91
      503
 93
      113
310
904313A32304000000000000344000
  0
ACAD_PROXY_OBJECT
  5
50
102
{ACAD_REACTORS
330
47
102
}
330
47
100
AcDbProxyObject
 90
      499
 91
      503
 93
      113
310
904313A333040000000000003E4000
  0
ACAD_PROXY_OBJECT
  5
51
102
{ACAD_REACTORS
330
47
102
}
330
47
100
AcDbProxyObject
 90
      499
 91
      503
 93
      113
310
904313A34304000000000000444000
  0
ACAD_PROXY_OBJECT
  5
52
102
{ACAD_REACTORS
330
47
102
}
330
47
100
AcDbProxyObject
 90
      499
 91
      503
 93
      113
310
904313A35304000000000000494000
  0
ACAD_PROXY_OBJECT
  5
53
102
{ACAD_REACTORS
330
47
102
}
330
47
100
AcDbProxyObject
 90
      499
 91
      503
 93
      121
310
905313A3130304000000000000594000
  0
ACAD_PROXY_OBJECT
  5
54
102
{ACAD_REACTORS
330
47
102
}
330
47
100
AcDbProxyObject
 90
      499
 91
      503
 93
      105
310
903323A310000000000000010100
  0
ACAD_PROXY_OBJECT
  5
55
102
{ACAD_REACTORS
330
47
102
}
330
47
100
AcDbProxyObject
 90
      499
 91
      503
 93
      105
310
903343A310000000000000410100
  0
ACAD_PROXY_OBJECT
  5
56
102
{ACAD_REACTORS
330
47
102
}
330
47
100
AcDbProxyObject
 90
      499
 91
      503
 93
      105
310
903383A310000000000000810100
  0
ACAD_PROXY_OBJECT
  5
57
102
{ACAD_REACTORS
330
47
102
}
330
47
100
AcDbProxyObject
 90
      499
 91
      503
 93
      113
310
90431303A310000000000000910100
  0
ACAD_PROXY_OBJECT
  5
58
102
{ACAD_REACTORS
330
47
102
}
330
47
100
AcDbProxyObject
 90
      499
 91
      503
 93
      121
310
9053130303A310000000000001650100
  0
ACAD_PROXY_OBJECT
  5
59
102
{ACAD_REACTORS
330
47
102
}
330
47
100
AcDbProxyObject
 90
      499
 91
      503
 93
      257
310
90E312F31323822203D2031272D3022000000000000200FC000000000000284000
  0
ACAD_PROXY_OBJECT
  5
5A
102
{ACAD_REACTORS
330
47
102
}
330
47
100
AcDbProxyObject
 90
      499
 91
      503
 93
      249
310
90D312F363422203D2031272D3022000000000000240FC000000000000284000
  0
ACAD_PROXY_OBJECT
  5
5B
102
{ACAD_REACTORS
330
47
102
}
330
47
100
AcDbProxyObject
 90
      499
 91
      503
 93
      249
310
90D312F333222203D2031272D3022000000000000280FC000000000000284000
  0
ACAD_PROXY_OBJECT
  5
5C
102
{ACAD_REACTORS
330
47
102
}
330
47
100
AcDbProxyObject
 90
      499
 91
      503
 93
      249
310
90D312F313622203D2031272D30220000000000002C0FC000000000000284000
  0
ACAD_PROXY_OBJECT
  5
5D
102
{ACAD_REACTORS
330
47
102
}
330
47
100
AcDbProxyObject
 90
      499
 91
      503
 93
      249
310
90D332F333222203D2031272D30220000000000002E0FC000000000000284000
  0
ACAD_PROXY_OBJECT
  5
5E
102
{ACAD_REACTORS
330
47
102
}
330
47
100
AcDbProxyObject
 90
      499
 91
      503
 93
      241
310
90C312F3822203D2031272D3022000000000000300FC000000000000284000
  0
ACAD_PROXY_OBJECT
  5
5F
102
{ACAD_REACTORS
330
47
102
}
330
47
100
AcDbProxyObject
 90
      499
 91
      503
 93
      249
310
90D332F313622203D2031272D3022000000000000320FC000000000000284000
  0
ACAD_PROXY_OBJECT
  5
60
102
{ACAD_REACTORS
330
47
102
}
330
47
100
AcDbProxyObject
 90
      499
 91
      503
 93
      241
310
90C312F3422203D2031272D3022000000000000340FC000000000000284000
  0
ACAD_PROXY_OBJECT
  5
61
102
{ACAD_REACTORS
330
47
102
}
330
47
100
AcDbProxyObject
 90
      499
 91
      503
 93
      241
310
90C332F3822203D2031272D3022000000000000360FC000000000000284000
  0
ACAD_PROXY_OBJECT
  5
62
102
{ACAD_REACTORS
330
47
102
}
330
47
100
AcDbProxyObject
 90
      499
 91
      503
 93
      241
310
90C312F3222203D2031272D3022000000000000380FC000000000000284000
  0
ACAD_PROXY_OBJECT
  5
63
102
{ACAD_REACTORS
330
47
102
}
330
47
100
AcDbProxyObject
 90
      499
 91
      503
 93
      241
310
90C332F3422203D2031272D30220000000000003A0FC000000000000284000
  0
ACAD_PROXY_OBJECT
  5
64
102
{ACAD_REACTORS
330
47
102
}
330
47
100
AcDbProxyObject
 90
      499
 91
      503
 93
      161
310
90A3122203D2031272D30224000000000000284000
  0
ACAD_PROXY_OBJECT
  5
65
102
{ACAD_REACTORS
330
47
102
}
330
47
100
AcDbProxyObject
 90
      499
 91
      503
 93
      257
310
90E312D312F3222203D2031272D30220000000000003E0FC000000000000284000
  0
ACAD_PROXY_OBJECT
  5
66
102
{ACAD_REACTORS
330
47
102
}
330
47
100
AcDbProxyObject
 90
      499
 91
      503
 93
      225
310
90A3322203D2031272D302200000000000002100000000000000284000
  0
ACAD_PROXY_OBJECT
  5
67
102
{ACAD_REACTORS
330
47
102
}
330
47
100
AcDbProxyObject
 90
      499
 91
      503
 93
      225
310
90A3622203D2031272D302200000000000006100000000000000284000
  0
ACAD_PROXY_OBJECT
  5
68
102
{ACAD_REACTORS
330
47
102
}
330
47
100
AcDbProxyObject
 90
      499
 91
      503
 93
      249
310
90D31272D3022203D2031272D30220000000000000A100000000000000284000
  0
ACAD_PROXY_OBJECT
  5
2F
102
{ACAD_REACTORS
330
2A
102
}
330
2A
100
AcDbProxyObject
 90
      499
 91
      501
 93
      436
310
42CC9915DA5C99599C985B595049028333333333333E33F0000000000000F90107901411070040501600405405064090741402480A0340
1001
ACAD
1000
AcDbSavedByObjectVersion
1070
     0
  0
ACAD_PROXY_OBJECT
  5
32
102
{ACAD_REACTORS
330
2A
102
}
330
2A
100
AcDbProxyObject
 90
      499
 91
      501
 93
      388
310
4150985CDA58D07406404333333333333E33F0000000000000F90107A41107004050150841D405064090741402480A0350
1001
ACAD
1000
AcDbSavedByObjectVersion
1070
     0
  0
ACAD_PROXY_OBJECT
  5
36
102
{ACAD_REACTORS
330
2A
102
}
330
2A
100
AcDbProxyObject
 90
      499
 91
      501
 93
      428
310
42109C9A59DA1D195B90C409028333333333333E33F0000000000000F9010790141107004050150841D405064090741402480A029950
1001
ACAD
1000
AcDbSavedByObjectVersion
1070
     0
  0
ACAD_PROXY_OBJECT
  5
3A
102
{ACAD_REACTORS
330
2A
102
}
330
2A
100
AcDbProxyObject
 90
      499
 91
      501
 93
      452
310
42D0DBDB1BDC90DA185B99D95104090240C333333333333E33F0000000000000F90108901411070040501508421405064090741402480A0350
1001
ACAD
1000
AcDbSavedByObjectVersion
1070
     0
  0
ACAD_PROXY_OBJECT
  5
34
102
{ACAD_REACTORS
330
2A
102
}
330
2A
100
AcDbProxyObject
 90
      499
 91
      501
 93
      500
310
4290DBDB98D95C1D1D585B10940D028333333333333E33F0000000000000F90107902409070040501000000000018199010841D405064090740C02480A0340
1001
ACAD
1000
AcDbSavedByObjectVersion
1070
     0
  0
ACAD_PROXY_OBJECT
  5
35
102
{ACAD_REACTORS
330
2A
102
}
330
2A
100
AcDbProxyObject
 90
      499
 91
      501
 93
      412
310
40D11A5B50B409028333333333333E33F0000000000000F9010790141107004050150841D405064090741402480A02677FFFFFD0
1001
ACAD
1000
AcDbSavedByObjectVersion
1070
     0
  0
ACAD_PROXY_OBJECT
  5
3D
102
{ACAD_REACTORS
330
2A
102
}
330
2A
100
AcDbProxyObject
 90
      499
 91
      501
 93
      452
310
43115919D950DBDB1BDC93D999916409028333333333333E33F0000000000000F9010790141107004050150841D405064090741402480A0350
1001
ACAD
1000
AcDbSavedByObjectVersion
1070
     0
  0
ACAD_PROXY_OBJECT
  5
39
102
{ACAD_REACTORS
330
2A
102
}
330
2A
100
AcDbProxyObject
 90
      499
 91
      501
 93
      444
310
42D19858D95C185D1D195C9B90F409028333333333333E33F0000000000000F9010790141107004050150841D405064090741402480A0350
1001
ACAD
1000
AcDbSavedByObjectVersion
1070
     0
  0
ACAD_PROXY_OBJECT
  5
2B
102
{ACAD_REACTORS
330
2A
102
}
330
2A
100
AcDbProxyObject
 90
      499
 91
      501
 93
      380
310
41119B185D240901404333333333333E33F0000000000000F9010740A907004050150841D405064090741402480A1B50
1001
ACAD
1000
AcDbSavedByObjectVersion
1070
     0
  0
ACAD_PROXY_OBJECT
  5
2C
102
{ACAD_REACTORS
330
2A
102
}
330
2A
100
AcDbProxyObject
 90
      499
 91
      501
 93
      468
310
43519B185D15DA5D1A115919D95CD0140901404333333333333E33F0000000000000F90107409019070040501600405405064090741402480A1B50
1001
ACAD
1000
AcDbSavedByObjectVersion
1070
     0
  0
ACAD_PROXY_OBJECT
  5
2D
102
{ACAD_REACTORS
330
2A
102
}
330
2A
100
AcDbProxyObject
 90
      499
 91
      501
 93
      404
310
41D1DBDD5C985D5910240902404333333333333E33F0000000000000F9010740A9070040501641D405064090741402480A1B50
1001
ACAD
1000
AcDbSavedByObjectVersion
1070
     0
  0
ACAD_PROXY_OBJECT
  5
2E
102
{ACAD_REACTORS
330
2A
102
}
330
2A
100
AcDbProxyObject
 90
      499
 91
      501
 93
      492
310
4411DBDD5C985D5915DA5D1A115919D95CD0340902404333333333333E33F0000000000000F90107409019070040501600405405064090741402480A1B50
1001
ACAD
1000
AcDbSavedByObjectVersion
1070
     0
  0
ACAD_PROXY_OBJECT
  5
31
102
{ACAD_REACTORS
330
2A
102
}
330
2A
100
AcDbProxyObject
 90
      499
 91
      501
 93
      476
310
41921A5919195B90640502408333333333333E33F0000000000000F901079024090700405020000000000001110200405405064090740C02480A0340
1001
ACAD
1000
AcDbSavedByObjectVersion
1070
     0
  0
ACAD_PROXY_OBJECT
  5
3B
102
{ACAD_REACTORS
330
2A
102
}
330
2A
100
AcDbProxyObject
 90
      499
 91
      501
 93
      428
310
42529A5D1D195C93D999914409028333333333333E33F0000000000000F9010790141107004050150A41D405064090741402480A0350
1001
ACAD
1000
AcDbSavedByObjectVersion
1070
     0
  0
ACAD_PROXY_OBJECT
  5
38
102
{ACAD_REACTORS
330
2A
102
}
330
2A
100
AcDbProxyObject
 90
      499
 91
      501
 93
      444
310
42D31A5B995C185D1D195C9B90E409028333333333333E33F0000000000000F9010790141107004050750841D405064090741402483A0350
1001
ACAD
1000
AcDbSavedByObjectVersion
1070
     0
  0
ACAD_PROXY_OBJECT
  5
3C
102
{ACAD_REACTORS
330
2A
102
}
330
2A
100
AcDbProxyObject
 90
      499
 91
      501
 93
      444
310
42D3DD995C9A185B99D3D999915409028333333333333E33F0000000000000F9010790141107004050150941D405064090741402480A0350
1001
ACAD
1000
AcDbSavedByObjectVersion
1070
     0
  0
ACAD_PROXY_OBJECT
  5
33
102
{ACAD_REACTORS
330
2A
102
}
330
2A
100
AcDbProxyObject
 90
      499
 91
      501
 93
      428
310
425499585B1A5CDD1A58D08409038333333333333E33F0000000000000F9010740A907004050150800405405064090740C02480A1B40
1001
ACAD
1000
AcDbSavedByObjectVersion
1070
     0
  0
ACAD_PROXY_OBJECT
  5
42
102
{ACAD_REACTORS
330
2A
102
}
330
2A
100
AcDbProxyObject
 90
      499
 91
      501
 93
      420
310
4194DA1859195911B40902404333333333333E33F0000000000000F9010740A41107004050150800405405064090840C02480A0B40
1001
ACAD
1000
AcDbSavedByObjectVersion
1070
     0
  0
ACAD_PROXY_OBJECT
  5
41
102
{ACAD_REACTORS
330
2A
102
}
330
2A
100
AcDbProxyObject
 90
      499
 91
      501
 93
      516
310
4454DA18591959081DDA5D1A08195919D95CD1A40902404333333333333E33F0000000000000F901074090142907004050250800405405064090740C02480A0B40
1001
ACAD
1000
AcDbSavedByObjectVersion
1070
     0
  0
ACAD_PROXY_OBJECT
  5
3E
102
{ACAD_REACTORS
330
2A
102
}
330
2A
100
AcDbProxyObject
 90
      499
 91
      501
 93
      532
310
4394DA1859195CC81BD98811DC985E5174090240C333333333333E33F0000000000000F901079024090741D01000000000000111010841D405064090740C02480A0340
1001
ACAD
1000
AcDbSavedByObjectVersion
1070
     0
  0
ACAD_PROXY_OBJECT
  5
3F
102
{ACAD_REACTORS
330
2A
102
}
330
2A
100
AcDbProxyObject
 90
      499
 91
      501
 93
      476
310
41D4DAD95D18DA1E51840502408333333333333E33F0000000000000F901079024090741D01000000000000111010B41D405064090741802480A0340
1001
ACAD
1000
AcDbSavedByObjectVersion
1070
     0
  0
ACAD_PROXY_OBJECT
  5
37
102
{ACAD_REACTORS
330
2A
102
}
330
2A
100
AcDbProxyObject
 90
      499
 91
      501
 93
      412
310
41D51A1A58DAD95B90D409028333333333333E33F0000000000000F9010790141107004050150C41D405064090741402480A0350
1001
ACAD
1000
AcDbSavedByObjectVersion
1070
     0
  0
ACAD_PROXY_OBJECT
  5
30
102
{ACAD_REACTORS
330
2A
102
}
330
2A
100
AcDbProxyObject
 90
      499
 91
      501
 93
      420
310
4255DA5C99599C985B595059028333333333333E33F0000000000000F90107901411070040501600405405064090740C02480A0340
1001
ACAD
1000
AcDbSavedByObjectVersion
1070
     0
  0
ACAD_PROXY_OBJECT
  5
40
102
{ACAD_REACTORS
330
2A
102
}
330
2A
100
AcDbProxyObject
 90
      499
 91
      501
 93
      404
310
41560B54985E51940902404000000000000E03F0000000000000F9010740501907004050150841D405064090740C02480A1B40
1001
ACAD
1000
AcDbSavedByObjectVersion
1070
     0
  0
XRECORD
  5
85
102
{ACAD_REACTORS
330
7B
102
}
330
7B
100
AcDbXrecord
340
0
  0
XRECORD
  5
84
102
{ACAD_REACTORS
330
7B
102
}
330
7B
100
AcDbXrecord
 90
        0
  0
XRECORD
  5
9B
102
{ACAD_REACTORS
330
7B
102
}
330
7B
100
AcDbXrecord
1000
DSTYLE
1002
{
1070
   340
340
11
1002
}
  0
XRECORD
  5
86
102
{ACAD_REACTORS
330
7B
102
}
330
7B
100
AcDbXrecord
  1
{7dd6f726-5338-48b7-9a81-d9abd422c799}
  0
XRECORD
  5
7E
102
{ACAD_REACTORS
330
7B
102
}
330
7B
100
AcDbXrecord
  1

  0
XRECORD
  5
83
102
{ACAD_REACTORS
330
7B
102
}
330
7B
100
AcDbXrecord
 90
        4
  0
XRECORD
  5
80
102
{ACAD_REACTORS
330
7B
102
}
330
7B
100
AcDbXrecord
340
1A
  0
XRECORD
  5
82
102
{ACAD_REACTORS
330
7B
102
}
330
7B
100
AcDbXrecord
 90
    10781
  0
XRECORD
  5
81
102
{ACAD_REACTORS
330
7B
102
}
330
7B
100
AcDbXrecord
340
19
  0
XRECORD
  5
88
102
{ACAD_REACTORS
330
7B
102
}
330
7B
100
AcDbXrecord
 40
0.0
  0
XRECORD
  5
8B
102
{ACAD_REACTORS
330
7B
102
}
330
7B
100
AcDbXrecord
340
0
  0
XRECORD
  5
91
102
{ACAD_REACTORS
330
7B
102
}
330
7B
100
AcDbXrecord
 10
0.0
 20
0.0
 30
0.0
  0
XRECORD
  5
8D
102
{ACAD_REACTORS
330
7B
102
}
330
7B
100
AcDbXrecord
 10
0.0
 20
0.0
 30
0.0
  0
XRECORD
  5
90
102
{ACAD_REACTORS
330
7B
102
}
330
7B
100
AcDbXrecord
 10
0.0
 20
0.0
 30
0.0
  0
XRECORD
  5
8E
102
{ACAD_REACTORS
330
7B
102
}
330
7B
100
AcDbXrecord
 10
0.0
 20
0.0
 30
0.0
  0
XRECORD
  5
8F
102
{ACAD_REACTORS
330
7B
102
}
330
7B
100
AcDbXrecord
 10
0.0
 20
0.0
 30
0.0
  0
XRECORD
  5
8C
102
{ACAD_REACTORS
330
7B
102
}
330
7B
100
AcDbXrecord
 10
0.0
 20
0.0
 30
0.0
  0
XRECORD
  5
89
102
{ACAD_REACTORS
330
7B
102
}
330
7B
100
AcDbXrecord
340
0
  0
XRECORD
  5
8A
102
{ACAD_REACTORS
330
7B
102
}
330
7B
100
AcDbXrecord
 70
     0
  0
XRECORD
  5
7F
102
{ACAD_REACTORS
330
7B
102
}
330
7B
100
AcDbXrecord
  1

  0
XRECORD
  5
7C
102
{ACAD_REACTORS
330
7B
102
}
330
7B
100
AcDbXrecord
 90
        1
  0
XRECORD
  5
7D
102
{ACAD_REACTORS
330
7B
102
}
330
7B
100
AcDbXrecord
 90
       70
  0
XRECORD
  5
94
102
{ACAD_REACTORS
330
7B
102
}
330
7B
100
AcDbXrecord
340
0
  0
XRECORD
  5
9A
102
{ACAD_REACTORS
330
7B
102
}
330
7B
100
AcDbXrecord
 10
0.0
 20
0.0
 30
0.0
  0
XRECORD
  5
96
102
{ACAD_REACTORS
330
7B
102
}
330
7B
100
AcDbXrecord
 10
0.0
 20
0.0
 30
0.0
  0
XRECORD
  5
99
102
{ACAD_REACTORS
330
7B
102
}
330
7B
100
AcDbXrecord
 10
0.0
 20
0.0
 30
0.0
  0
XRECORD
  5
97
102
{ACAD_REACTORS
330
7B
102
}
330
7B
100
AcDbXrecord
 10
0.0
 20
0.0
 30
0.0
  0
XRECORD
  5
98
102
{ACAD_REACTORS
330
7B
102
}
330
7B
100
AcDbXrecord
 10
0.0
 20
0.0
 30
0.0
  0
XRECORD
  5
95
102
{ACAD_REACTORS
330
7B
102
}
330
7B
100
AcDbXrecord
 10
0.0
 20
0.0
 30
0.0
  0
XRECORD
  5
92
102
{ACAD_REACTORS
330
7B
102
}
330
7B
100
AcDbXrecord
340
0
  0
XRECORD
  5
93
102
{ACAD_REACTORS
330
7B
102
}
330
7B
100
AcDbXrecord
 70
     0
  0
XRECORD
  5
87
102
{ACAD_REACTORS
330
7B
102
}
330
7B
100
AcDbXrecord
  1
{FAEB1C32-E019-11D5-929B-00C0DF256EC4}
  0
DICTIONARYVAR
  5
A5
102
{ACAD_REACTORS
330
9C
102
}
330
9C
100
DictionaryVariables
280
     0
  1
1:1
  0
DICTIONARYVAR
  5
9E
102
{ACAD_REACTORS
330
9C
102
}
330
9C
100
DictionaryVariables
280
     0
  1
Standard
  0
DICTIONARYVAR
  5
9D
102
{ACAD_REACTORS
330
9C
102
}
330
9C
100
DictionaryVariables
280
     0
  1
Standard
  0
DICTIONARYVAR
  5
A1
102
{ACAD_REACTORS
330
9C
102
}
330
9C
100
DictionaryVariables
280
     0
  1
2
  0
DICTIONARYVAR
  5
A2
102
{ACAD_REACTORS
330
9C
102
}
330
9C
100
DictionaryVariables
280
     0
  1
1
  0
DICTIONARYVAR
  5
A6
102
{ACAD_REACTORS
330
9C
102
}
330
9C
100
DictionaryVariables
280
     0
  1
1
  0
DICTIONARY
  5
A9
330
45
100
AcDbDictionary
280
     1
  3
ACAD_XREC_ROUNDTRIP
360
AA
  0
DICTIONARY
  5
A7
330
44
100
AcDbDictionary
280
     1
  3
ACAD_XREC_ROUNDTRIP
360
A8
  0
DICTIONARY
  5
AB
330
46
100
AcDbDictionary
280
     1
  3
ACAD_XREC_ROUNDTRIP
360
AC
  0
XRECORD
  5
AA
102
{ACAD_REACTORS
330
A9
102
}
330
A9
100
AcDbXrecord
102
MATERIAL
148
0.0
149
0.0
149
0.0
 93
        0
 94
      127
282
     0
 72
     1
 77
     1
171
     1
175
     1
179
     1
273
     0
  0
XRECORD
  5
A8
102
{ACAD_REACTORS
330
A7
102
}
330
A7
100
AcDbXrecord
102
MATERIAL
148
0.0
149
0.0
149
0.0
 93
        0
 94
      127
282
     0
 72
     1
 77
     1
171
     1
175
     1
179
     1
273
     0
  0
XRECORD
  5
AC
102
{ACAD_REACTORS
330
AB
102
}
330
AB
100
AcDbXrecord
102
MATERIAL
148
0.0
149
0.0
149
0.0
 93
        0
 94
      127
282
     0
 72
     1
 77
     1
171
     1
175
     1
179
     1
273
     0
  0
ENDSEC
  0
EOF
